Norma Jean - Vertebraille Text Guitar Tab

Learn the song with the online tablature player
Norma Jean
Vertebraille: Choke That Thief Called Dependence
O'God The Aftermath
Jordan Rozell
Db Ab Db Gb Bb b

0:00-0:01
 B|--7p0-5p0-2/4p0--7p0-5p0-2/4p0-2/4p0--------|
Bb|--7p0-5p0-2/4p0--7p0-5p0-2/4p0-2/4p0--------|
Gb|--------------------------------------------|
Db|--------------------------------------------|
Ab|--------------------------------------------|
Db|--------------------------------------------|

0:02-0:12
 B|--7p0-5p0-2/4p0--7p0-5p0-2/4p0-2/4p0--------|
Bb|--7p0-5p0-2/4p0--7p0-5p0-2/4p0-2/4p0--------|
Gb|--------------------------------------------|
Db|--------------------------------------------|
Ab|--------------------------------------------|
Db|--------------------------------------------|
  |                                            |X4
 B|--------------------------------------------|    |-----------|
Bb|--------------------------------------------|    |-----------|
Gb|--------------------------------------------|    |-----------|
Db|-----0--2---0--2--3--2--0--2--3--2----------|    |--0-2-0-2--|
Ab|-----0--2---0--2--3--2--0--2--3--2----------|    |--0-2-0-2--|
Db|-----0--2---0--2--3--2--0--2--3--2----------|    |--0-2-0-2--|

0:13-0:21
 B|----------------------------------|
Bb|----------------------------------|
Gb|----------------------------------|
Db|----------------------------------|
Ab|5---5---5---5---5---5-------------|
Db|--3---2---3---2---3---2-----------|X3

0:22-0:32
 B|--7p0-5p0-2/4p0--7p0-5p0-2/4p0-2/4p0--------|
Bb|--7p0-5p0-2/4p0--7p0-5p0-2/4p0-2/4p0--------|
Gb|--------------------------------------------|
Db|--------------------------------------------|
Ab|--------------------------------------------|
Db|--------------------------------------------|
  |                                            |X4
 B|--------------------------------------------|
Bb|--------------------------------------------|
Gb|--------------------------------------------|
Db|--4-------------4---------------------------|
Ab|--------------------------------------------|
Db|-----3---4---3----3---4---3----2--3---------|

0:33-0:41
 B|----------------------------------|
Bb|----------------------------------|
Gb|----------------------------------|
Db|----------------------------------|
Ab|5---5---5---5---5---5-------------|
Db|--3---2---3---2---3---2-----------|X3

0:41-0:51
 B|--------------------------------------------|
Bb|--------------------------------------------|
Gb|--------------------------------------------|
Db|--4-------------4---------------------------|
Ab|--------------------------------------------|
Db|-----3---4---3----3---4---3----2--3---------|X4

0:52-0:55
 B|---------------------------------------------------------------|
Bb|---------------------------------------------------------------|
Gb|---------------------------------------------------------------|
Db|---------------------------------------------------------------|
Ab|--17----17----17----17----17----17----17----17-----------------|
Db|-----15----14----15----14----13----14----13----14--------------|

0:56-1:04
 B|-------------------|
Bb|-------------------|
Gb|-------------------|
Db|--0-3-0-2-0-3-0-2--|
Ab|--0-3-0-2-0-3-0-2--|
Db|--0-3-0-2-0-3-0-2--|X4

1:05-1:13
 B|---------------------------------------------------------------------------------------------------|
Bb|---------------------------------------------------------------------------------------------------|
Gb|-----19----18----19----18----17----18----19----18----17----18----19----18----19----18----21----18--|
Db|------x-----x-----x-----x-----x-----x-----x-----x-----x-----x-----x-----x-----x-----x-----x-----x--|
Ab|-----18----17----18----17----16----17----18----17----16----17----18----17----18----17----20----17--|
Db|---------------------------------------------------------------------------------------------------|
  |                                                                                                   |
 B|---------------------------------------------------------------------------------------------------|
Bb|---------------------------------------------------------------------------------------------------|
Gb|---------------------------------------------------------------------------------------------------|
Db|---------------------------------------------------------------------------------------------------|
Ab|--17----17----17----17----17----17----17----17----17----17----17----17----17----17----17----17-----|
Db|-----15----14----15----14----13----14----15----14----13----14----15----14----15----14----17----14--|

1:14-1:30
 B|------------------|
Bb|------------------|
Gb|------------------|
Db|2-0-1-0--2-0-1-0--|
Ab|2-0-1-0--2-0-1-0--|
Db|2-0-1-0--2-0-1-0--|X4

1:30-1:39
 B|--7p0-5p0-2/4p0--7p0-5p0-2/4p0-2/4p0--------|
Bb|--7p0-5p0-2/4p0--7p0-5p0-2/4p0-2/4p0--------|
Gb|--------------------------------------------|
Db|--------------------------------------------|
Ab|--------------------------------------------|
Db|--------------------------------------------|
  |                                            |X4
 B|--------------------------------------------|
Bb|--------------------------------------------|
Gb|--------------------------------------------|
Db|-----0--2---0--2--3--2--0--2--3--2----------|
Ab|-----0--2---0--2--3--2--0--2--3--2----------|
Db|-----0--2---0--2--3--2--0--2--3--2----------|

1:40-1:53
 B|-----------|--------------------------------------|
Bb|-----------|--------------------------------------|
Gb|-----------|--------------------------------------|
Db|-----------|--------------------------------------|
Ab|--2--5--1--|--2--1--2--1--0--1--2--1--2--1--5--1--|
Db|--2--5--1--|--2--1--2--1--0--1--2--1--2--1--5--1--|X2

1:54-1:57
 B|--6p0-4p0---4h6-6-6p4p0--------0-------------|
Bb|--6p0-4p0---4h6-6-6p4p0--------0-------------|
Gb|-------------------------------0-------------|
Db|-------------------------------0-------------|
Ab|-------------------------------0-------------|
Db|-------------------------------0-------------|
  |                                             |
 B|--------------------------0------------------|
Bb|--------------------------0------------------|
Gb|--------------------------0------------------|
Db|----------0-2-3-2-0-2-3---0------------------|
Ab|----------0-2-3-2-0-2-3---0------------------|
Db|----------0-2-3-2-0-2-3---0------------------|

1:58-2:05
 B|---------------------------|  |--0---0--|
Bb|---------------------------|  |--0---0--|
Gb|---------------------------|  |--0---0--|
Db|---------------------------|  |--0---0--|
Ab|---------------------------|  |--0---0--|
Db|--7p0-5p0-2/4p0-7p0-2/4p0--|X4|--0---0--|

2:06-2:19
 B|---------------------------|  |--2---3---4----|
Bb|---------------------------|  |--2---3---4----|
Gb|---------------------------|  |---------------|
Db|---------------------------|  |---------------|
Ab|---------------------------|  |----3---4---5--|
Db|--7p0-5p0-2/4p0-7p0-2/4p0--|X4|----3---4---5--|X4

2:20-2:36
 B|---------------------------|  |--2---3---4----|
Bb|---------------------------|  |--2---3---4----|
Gb|---------------------------|  |---------------|
Db|---------------------------|  |---------------|
Ab|---------------------------|  |----3---4---5--|
Db|--7p0-5p0-2/4p0-7p0-2/4p0--|X4|----3---4---5--|X4

2:37-2:43
 B|--5---6---6---7---8---8---9---10---10---11---11------------------|
Bb|--5---6---6---7---8---8---9---10---10---11---11------------------|
Gb|-----------------------------------------------------------------|
Db|-----------------------------------------------------------------|
Ab|----6---7---7---8---9---9---10---11---11---12---12---------------|
Db|----6---7---7---8---9---9---10---11---11---12---12--12/14\\\\\\--|

2:44-3:12
 B|-------------------------------------------------------|
Bb|-------------------------------------------------------|
Gb|-------------------------------------------------------|
Db|----------------------------2---2---2------------------|
Ab|---------99997777777-----------------------------------|
Db|--22222---------------11111---1----1----1---000--00----|X4

There you go im 100% that this is correct.