North Mississippi Allstars - Po Black Maddie Text Guitar Tab

Learn song with the online tabulature player
-------------------------------------------------------------------------------
                             Po Black Maddie - North Mississippi All-Stars
-------------------------------------------------------------------------------
Tabbed by: Jonathan
Email:None

Tuning:Standard

e|----------1---3------------------------------------------------------------|
B|----1/3-------------------1p0-------3p1---0-------1p0----------------------|
G|---------------------------------------------------------------------------|
D|---------------------------------------------------------------------------|
A|----------------------1-----------------------1----------------------------|
E|------------------3-------------3------------------------------------------|

or this way like he plays it-

Tuning: open G
d|----------3---5------------------------------------------------------------|
B|----1/3-------------------1p0-------3p1---0-------1p0----------------------|
G|---------------------------------------------------------------------------|
D|---------------------------------------------------------------------------|
G|------------------0---3---------0-------------3---------0------------------|
D|---------------------------------------------------------------------------|

| /  slide up
| \  slide down
| h  hammer-on
| p  pull-off
| ~  vibrato
| +  harmonic
| x  Mute note