Norther - Drowning Text Guitar Tab

Learn song with the online tabulature player
|-----------------------|
|-----------------------|
|-----------------------|
|----6-----2-----6-4-8-6| 
|-----8-----4-----8-2---|  
|0000--0000--0000-------|
 ....  ....  ....

|--------------------------|
|--------------------------|
|--------------------------|
|----6-----2-----6-4-6-7-9-| 
|-----8-----4-----8-2-----8| 
|0000--0000--0000----------|
 ....  ....  ....

|-----------------------|
|-----------------------|
|-----------------------|
|----6-----2-----6-4-8-6| 
|-----8-----4-----8-2---|  
|0000--0000--0000-------|
 ....  ....  ....

|-----------------------------------------------|
|-----------------------------------------------|
|--------------------------------7-9-10-9-10-12~|
|----6-----2-----6-4-6-7-9-7-9-10---------------|
|-----8-----4-----8-2---------------------------|  
|0000--0000--0000-------------------------------|
 ....  ....  ....