Northstar - For Members Only Text Guitar Tab

Learn the song with the online tablature player
Intro

e-----------------------------------------------------------------]
B---------5h6-5h6-8-----------------------------------------------]
G---------------------5-------------------------------------------]
D-----------------------------------------------------------------]
A-----------------------------------------------------------------]
D-----------------------------------------------------------------]

Verse
"Just forget all about fate..."

e----------------------------------------------------]
b----------------------------------------------------]
g------5-4-------2----55-----------------5-4---------]
d---5------5-----2----55-----33--33----5------5------]
a----------------0----33-----33--33------------------]
d----------------------------33--33------------------]

pre-chorus
"You move me like I've got new feet..."

e-------------------------------------------]------------------]
b-------------------------------------------]------------------]
g---55555555555------22222222---------------]--2--555--333-----]
d---55555555555------22222222---------------]--0--333--333-----]
a---33333335555------00000000---------------]----------333-----]
d----------------------------
 P.M. ..........    ... .... ..

Chorus
"My sterio has blown away..."

e----------------------------------------------------]
b----------------------------------------------------]
g-----------222222-----555555555---------------------]
d--3333333--222222-----555555555---------------------]
a--3333333--000000-----333333333---------------------]
d--3333333-------------------------------------------]
(Not exact timing but you get the idea...)

Interlude

e--------------------------------------------------------------------]
b-----------------5-4---7~/9~----------------------------------------]
g-----5-4------------5---------5-9h7h9-5------5-4--------------------]
d---5-----5/2-------------------------------5------5-----------------]
a--------------3-----------------------------------------------------]
d--------------------------------------------------------------------]

Verse
prechorus
Chorus

BRIDGE
(not so sure about)
e--------------------------------------------------------------------]
b-----------------5-4---7~/9~----------------------------------------]
g-----5-4------------5---------5-9h7h9-5-----------------------------]
d---5-----5/2---------------------------------7/2----9---10----------]
a--------------3-----------------------------------------------------]
d--------------------------------------------------------------------]

e--------------------------------------------------------------------]
b--------------------------------------------------------------------]
g-22-12121212--[--5-4--]----[-22-55-]----22--12121212----------------]
d-22--x-x-x-x--[-5----5]----[-22-55-]----22---x-x-x-x----------------]
a-00-10101010---------------[-00-33-]----00--10101010----------------]
d--------------------------------------------------------------------]

"I cut her up and sent.."
e-------------------------------------------------------]
b-------------------------------------------------------]
g-----------222222-----555555555------[--------]--------]
d--3333333--222222-----555555555------[--5-4---]--------]
a--3333333--000000-----333333333------[-5-----5]--------]
d--3333333----------------------------------------------]

Just forget all about fate
While I unlock this gentlemen's promise
With Flesh like fire but it lacks a color
And chemical laughs (that) fly around like drama
I know I move like an apparition
in a style that's all ghostwritten
but these are the things I can take apart
These are the things I can take...

You move me like I've got new feet...

"Just don't leave me like this
because I need wonder...."

My stereo has blown away
So for now your voice can stay...
But once they all circle me....
... I will rip apart this machine...

I am a prince
With paper parts
Made of spit and paper dolls
A killer's karma has been bound
Uneven seams
a broken bow...
She's got this problem with people flying
One way tickets and a fear of crying
But these are the things she can take apart
These are the things I will take....

I cut her up and sent all the parts and
They hung them on all the corners and bars