Northstar - Rigged And Ready Text Guitar Tab

Learn the song with the online tablature player
ok, "rigged and ready" by Northstar. it isnt the whole song but it goes pretty far past the intro.

(guitar 1)intro - in 8th notes

E-----------------------------------------------------------------------------|
B-----------------------------------------------------------------------------|
G-----------------------------------------------------------------------------|
D------0--2-----2-s4-----4-------4-s7-----7-------7-------7-------7-------7---|
A----0--------0------2-2---2-0-0--------5---5---5---5---5---5---5---5---5---5-|
E--0--------0-------------------------5-------5-------5-------5-------5-------|

(that part is repeated 4 times)

and the 2nd guitar part that comes in at the same time as:

E-----------------------------------|
B-----------------------------------|
G-----------------------------------|
D------7---    <(PART OF THE INTRO--|
A----5---5--------------------------|
E--5--------------------------------|

Goes like this(Second guitar part over intro): (all in 8th notes)

E--------------------------  E-------------------------------|
B--------------------------  B-------------------------------|
G----2--------------2------  G----2---------------2---2------|
D--4---4-2-4-2-0-2-4-4-2-0-  D--4---4-2-4-2-0-2-4---4--------|
A--------------------------  A-------------------------------|
E--------------------------  E-------------------------------|

(for that part you could also try sliding 4,7,4,2,4,2,0,2,4,7,4,2,0, doing the whole
completely on the D string. or mix it around with 9,7,5, on the A string.

ok, now when the guy starts singing: (guitar part is played very quietly, it might even
only the base guitar playing but these are the chords used, might be a good idea to mute)

   1 + 2 + 3 + 4 + 1 + 2 + 3 + 4 + 1 + 2 + 3 + 4 + 1 + 2 + 3 + 4 +
E------------------------------------------------------------------|
B------------------------------------------------------------------|
G--4-4-4-4-4-------2-2-2-2-2-------7-7-7-7-7-----------------------| x4
D--4-4-4-4-4-------2-2-2-2-2-------7-7-7-7-7-------5-5-5-5-5-------|
A--2-2-2-2-2-------0-0-0-0-0-------5-5-5-5-5-------5-5-5-5-5-------|
E--------------------------------------------------5-5-5-5-5-------|

then when it gets louder (same chords, different rhythm)

   1 + 2 + 3 + 4 +

E------------------|
B------------------|
G--4---4---4-4-4-4-|   (do that rhythm for each chord in the quieter part)
D--4---4---4-4-4-4-|
A--2---2---2-2-2-2-|
E------------------|

   1 + 2 + 3 + 4 +
E------------------|
B------------------|
G------------------|
D--5---5-----5---5-|
A--5---5-----5---5-|
E--5---5-----5---5-|

ok, now this part: (*after the last part is repeated the right number of times)

   1 + 2 + 3 + 4 + 1 + 2 + 3 + 4 + 1 + 2 + 3 + 4 + 1 + 2 + 3 + 4 + 1+2+3+4+
E--------------------------7p5---5-----------5-----------------------------|
B------------------------------7-------7---7---7---------------------------|
G--4---4---4---4---4---4-------------------------7-(let ring)--------------|
D--4---4---4---4---4---4---------------------------------------------------|
A--2---2---2---2---2---2---------------------------------------------------|
E--------------------------------------------------------------------------|

then right after that part, it does pretty much the same thing as before, with the same chords:

E-------------------------|
B-------------------------|
G--4------2------7--------|   (same chords as first part)
D--4------2------7------5-|
A--2------0------5------5-|
E-----------------------5-|

ok thats all i know if you know more, or where i made a mistake then tell me because i want to know.