Nosfell - Mindala Jinka Text Guitar Tab

Learn song with the online tabulature player
tabbed by Moth
Nosfell "mindala jinka"

                           5x
E||----------------------|-------------------------||-----------------------|
B||----------------------|-----------3-------------||-----------------------|
G||----------------------|------------------------*||*----------------------|
D||----------------------|--------5-----5---------*||*----------------------|
A||-----3------3---------|-----3-------------------||------2------2---------|
E||--4------------4------|--4--------------4-------||---3------------3------|


                                                                            5x
-------------------------||-----------------------|-------------------------|
-----------2-------------||-----------------------|-----------3-------------|
------------------------*||*----------------------|------------------------*|
--------4-----4---------*||*----------------------|--------5-----5---------*|
-----2-------------------||------3------3---------|-----3-------------------|
--3--------------3-------||---4------------4------|--4--------------4-------|


enjoy!