Nostromo - Turned Black Text Guitar Tab

Learn song with the online tabulature player
-------------------------------------------------------------------------------
                             Turned Black - Nostromo
-------------------------------------------------------------------------------
Tabbed by:LukieWukie
Email:Lukie.Wukie@hotmail.com
Voici le début de Turned Black de nostromo sur leur Cd Acoustique "Proteron"

Tuning:EADGBe
   [x------X2--------]                                            
e|------------------------------------------------0--------------------------|
B|--5-x13--7-5-7h8p7----5\3---3---5-3---3\1---1-----1------------------------|
G|--------------------------0---0-----0--------------------------------------|
D|------------------------------------------3---3-----3----------------------|
A|---------------------------------------------------------------------------|
E|---------------------------------------------------------------------------|
   [x------X2--------]
e|----------7---7h8-------------------------------0--------------------------|
B|--5-x13-----5-----5----5\3---3---5-3---3\1---1-----1-----------------------|
G|---------------------------0---0-----0-------------------------------------|
D|-------------------------------------------3---3-----3---------------------|
A|---------------------------------------------------------------------------|
E|---------------------------------------------------------------------------|

Je taberais peut-être le reste de la chanson quand j'aurais le temps

| /  slide up
| \  slide down
| h  hammer-on
| p  pull-off
| ~  vibrato
| +  harmonic
| x  Mute note
=================================================
http://htnostromo.free.fr/