Not Half Bad - Thats One Smart Mouse Text Guitar Tab

Learn the song with the online tablature player
Chords: (highest note is optional, sounds good if you play acoustic)
   Em    C     G
e----------------------|
b-------(5)------------|
g-(0)----5----(5)------|
d--2-----5-----5-------|
a--2-----3-----5-------|
E--0-----------3-------|

Intro/Verse Riff: (chords reflect overall tonality, no chords are played)
  Em       G        C        G        Em       G        C        G
e---------|--------|--------|--------|--------|--------|--------|--------|
b---------|--------|--------|--------|--------|--------|--------|--------|
g---------|--------|--------|--------|--------|--------|--------|--------|
d-22222222|55555555|10101010|55555555|22222222|55555555|--------|55555555|
a---------|--------|--------|--------|--------|--------|33333333|--------|
E---------|--------|--------|--------|--------|--------|--------|--------|

Intro Riff 1x

Verse Riff 2x

Let you know what I think about tomorrow
Let you know what I think about anything
Hope you know when I scream, I scream sorrow
Hope you know that I meant everything

Chorus 4x

Em    C    G    G

Let you know what I think about tomorrow
Let you know what I think about anything
Hope you know when I scream, I scream sorrow
Hope you know that I meant everything

Intro Riff 1x

Verse Riff 2x

Let you know what I think about today
Let you know that I think that we sketched out our own fate
Let you know how I don't care every time they say that we don't know
We don't know.

Chorus 4x

Let you know what I think about tomorrow
Let you know what I think about anything
Hope you know when I scream, I scream sorrow
Hope you know that I meant everything

Intro Riff 1x

Bridge 2x
(chords reflect overall tonality, no chords are played)

  Em       G        C        G        Em       G        C        G
e---------|--------|--------|--------|--------|--------|--------|--------|
b---------|--------|--------|--------|--------|--------|--------|--------|
g---------|--------|--------|--------|--------|--------|--------|--------|
d-2~------|5~------|10~-----|5~------|2~------|5~------|--------|5~------|
a---------|--------|--------|--------|--------|--------|3~------|--------|
E---------|--------|--------|--------|--------|--------|--------|--------|

Let you know what I think about tomorrow
                                         (We never know)
Let you know what I think about anything
                                         (What goes on)
Hope you know when I scream, I scream sorrow
                                            (Till the time comes)
Hope you know that I meant everything
                                      (Then it's too late)

Let you know what I think about today
                                      (We never know)

Let you know that I think that we sketched out our own fate
                                                        (What goes on)
Did you know that I don't care every time they say that we don't know?

Cause we know

Outro

(Chorus Chords 4x, Intro Riff 1x, Intro Riff 1x with notes sustained)