Not On Tour - Did You Get Enough Text Guitar Tab

Learn the song with the online tablature player
NOT ON TOUR - did you get enough

Intro

 D7
e|4--4-----------------------|
B|6--6--6h7p6---4---4h6------|
G|4--4------------6----------|
D|6--6-----------------------|
A|4--4-----------------------|
E|---------------------------|

 D7
e|4--4--------9---------------|
B|6--6--6s7s9-----------------|
G|4--4------------------------|
D|6--6------------------------|
A|4--4------------------------|
E|----------------------------|

  A                 B                 E               A                  B
e|------------------------------------------------------------------------------------|
B|------------9-----7------7h9h10-----10-9...--10h12--12--10--9h10h9------------7--7--|
G|9------9h11---------8-----------------------------------------------9--9s11---b9-b9-|
D|--11--------------------------------------------------------------------------------|
A|------------------------------------------------------------------------------------|
E|------------------------------------------------------------------------------------|

Verse 1

A                       Dbm
too many mistakes until you become obvious
Gbm                 Dmaj7
climbing walls when you know its impossible
A    Dbm     D
  so why sit down?
(D-D)         (D-E-D)
when you predict your falls anyway?

A                    (Gbm-E)
you’re running Away
A                      B
from loving yourself
A     Gbm        D
  you never gave up

 D
e|------------------------------------------|
B|------------------------------------------|
G|------------------------------------------|
D|---------------12V----12-12-12-12-11-9----|
A|-------9h10h12-------------------------12-|
E|-10h12------------------------------------|

CHOROS:

D                                      (Ab-A)
did you get enough of your destruction
A                    (Dbm-D)
You’re aiming for a downfall
D                  (Ab-A)
did you get enough
A                 Dbm   D
you’re aiming too low

 D
e|------------------|
B|------------------|
G|------------------|
D|------------------|
A|------4h5p4-------|
E|0h5h7-------5-----|

A                 Dbm   D
you’re aiming too low

Verse2

A                         Dbm
you write down everything you learn to believe
Gmb                   Dmaj7
erase the unnecessary
A       Dmb             (D-D)         (D-E-D)
now you land feet first
           A            (Gbm-E)
you’re not running away
    A            B
you learn to control
A     Gbm        D
  you never gave up

CHOROS:
did you...

WTF IS THAT?:

 D
e|------------------------------------------------------------------|
B|------------------------------------------------------------------|
G|------------------------------------------------------------------|
D|------------------------------------------------7-6-4-------------|    X2
A|----------7V----------4-4444-----------7V-------------7-5-4-------|
E|---0h5p0--------0h5p0-----------0h5p0-------X---------------7-5---|

CHOROS:
did you...

tabs made
BY VASSYA