Not Quite Fridays - Leaving Text Guitar Tab

Learn song with the online tabulature player
INTRO AND VERSE

    e---0-----0 (7)-0-----0-----0---------------------------------|
    b---0-----0-----0-----0(7)--0---------------------------------|
    g---0-----0-----0-----0-----0---------------------------------|
    d---9-----7-----5-----7-----9---------------------------------|
    a---7-----5-----3-----5-----7---------------------------------|
    e-------------------------------------------------------------|

    PRE CHORUS

    e-0--(3)-0--(3)-----(3)----------------------------------------------|
    b--1------1-----1----------------------------------------------------|
    g-- 2------0------0--------------------------------------------------|
    d----3------2------0-------------------------------------------------|
    a------------3------2------------------------------------------------|
    e--------------------3----2~-----------------------------------------|