Nothing Ever Stays - Black White Red All Over Text Guitar Tab

Learn song with the online tabulature player
This is a cool song to play.

Palm Mute everything.
e----------------------------------|
B----------------------------------|
G--6-6-6-4-6-6-6-4-6-6-6-4-6-6-6-4-|
D--6-6-----6-6-----6-6-----6-6-----|
A--4-4-----4-4-----4-4-----4-4-----|
E----------------------------------|
                    I wish you took

----------------------------------|
----------------------------------|
--6-6-6-4-6-6-6-4-6-6-6-4-6-6-6-4-|
--6-6-----6-6-----6-6-----6-6-----|
--4-4-----4-4-----4-4-----4-4-----|
--4-4-----4-4-----4-4-----4-4-----|

----------------------------------|
----------------------------------|
--2-2-2-0-2-2-2-0-2-2-2-0-2-2-2-0-|
--2-2-----2-2-----2-2-----2-2-----|
--0-0-----0-0-----0-0-----0-0-----|
----------------------------------|

----------------------------------|
----------------------------------|
--2-2-2-0-2-2-2-0-2-2-2-0-2-2-2-0-|
--2-2-----2-2-----2-2-----2-2-----|
--1-1-----1-1-----1-1-----1-1-----|
--1-1-----1-1-----1-1-----1-1-----|