Nothing To Lose - Just Looking Now Searching Text Guitar Tab

Learn the song with the online tablature player
Beginning Part:
e|---------------------------------------------------------------------------|
B|---------------------------------------------------------------------------|
G|-------2----3------2----3--------------------------------------------------|
D|----33---33-----33---33----------------------------------------------------|
A|---------------------------------------------------------------------------|
E|---------------------------------------------------------------------------|
  (Repeat several times)

Verse
e|---------------------------------------------------------------------------|
B|---------------------------------------------------------------------------|
G|----------------5--5555555-----3-333333333---------------------------------|
D|---7-7777777----5--5555555-----3-333333333---------------------------------|
A|---7-7777777----3--3333333-----1-111111111---------------------------------|
E|---5-5555555---------------------------------------------------------------|
pm     xxxxxxx       xxxxxxx       xxxxxxxxx

You have gone away...
I know there's much to learn...
Deep inside your heart....
There's a guy....

e|---------------------------------------------------------------------------|
B|---------------------------------------------------------------------------|
G|-------332-------332------332----------------------------------------------|
D|----33--------33-------33--------------------------------------------------|
A|---------------------------------------------------------------------------|
E|---------------------------------------------------------------------------|
She's going away....

Chorus
e|---------------------------------------------------------------------------|
B|-------666666666666666666666--88--10---------------------------------------|
G|-------xxxxxxxxxxxxxxxxxxxxx--xx--x----------------------------------------|
D|-------333333333333333333333--55--7----------------------------------------|
A|-------xxxxxxxxxxxxxxxxxxxxx--xx--x----------------------------------------|
E|---------------------------------------------------------------------------|
      What if I woke up in my dreams....

Ending
e|------6-5--------6-5-------6-5---------------------------------------------|
B|----6-----6----6-----6---6-------------------------------------------------|
G|---------------------------------------------------------------------------|
D|--------------------------------3------------------------------------------|
A|--------------------------------3------------------------------------------|
E|--------------------------------1------------------------------------------|