Nothing To Lose - On My Own Text Guitar Tab

Learn the song with the online tablature player
INTRO

Gtr.1
E---------------------------------------------------------------|
B---------------------------------------------------------------|
G---------------------------------------------------------------|  x2
D-----8--6-6--4-------8--6-6--8-------8--6-6--4-------8--8-8--4-|
A--6---------------6---------------6---------------6------------|
E---------------------------------------------------------------|

Gtr.2
   F#5      D#5  C#5
E---------------------------|
B---------------------------|
G-----------8-8--6-6--------|
D--4-4-4-4--8-8--6-6---X4---|   Note: enter verse with F#5
A--4-4-4-4--6-6--4-4--------|
E--2-2-2-2------------------|

VERSE
w/ bass and drums

ON FIRST VERSE AFTER TWO PROGRESSIONS Gtr.2 IN WITH
THEN REPEAT REGULAR VERSE X2

Gtr.2
E-----------|
B-----------|
G-----------|
D-x-x-x-x---|  ***ONLY ON FIRST VERSE***
A-x-x-x-x---|
E-x-x-x-x---|

REGULAR VERSE:

Gtr.2
   F#5             C#5             D#5             B5
E-->--------------->--------------->--------------->----------------|
B-------------------------------------------------------------------|
G------------------6-6-6-6-6-6-6-6-8-8-8-8-8-8-8-8------------------|
D--4-4-4-4-4-4-4-4-6-6-6-6-6-6-6-6-8-8-8-8-8-8-8-8-9-9-9-9-9-9-9 9--|  *PALM MUTE*
A--4-4-4-4-4-4-4-4-4-4-4-4-4-4-4-4-6-6-6-6-6-6-6-6-9-9-9-9-9-9-9-9--|
E--2-2-2-2-2-2-2-2---------------------------------7-7-7-7-7-7-7-7--|

PRECHORUS

Gtr.2
   C#5     D#5     B5
E-----------------------------------------|
B-----------------------------------------|
G--6-6-6-6-8-8-8-8-4-4-4-4-4-4-4-4--------|
D--6-6-6-6-8-8-8-8-4-4-4-4-4-4-4-4--------|  x2
A--4-4-4-4-6-6-6-6-2-2-2-2-2-2-2-2--------|
E-----------------------------------------|

CHORUS

Gtr.2
   F#5             C#5             D#5             B5
E-->--------------->--------------->--------------->----------------|
B-------------------------------------------------------------------|
G------------------6-6-6-6-6-6-6-6-8-8-8-8-8-8-8-8------------------|
D--4-4-4-4-4-4-4-4-6-6-6-6-6-6-6-6-8-8-8-8-8-8-8-8-9-9-9-9-9-9-9 9--|  x3
A--4-4-4-4-4-4-4-4-4-4-4-4-4-4-4-4-6-6-6-6-6-6-6-6-9-9-9-9-9-9-9-9--|
E--2-2-2-2-2-2-2-2---------------------------------7-7-7-7-7-7-7-7--|

Gtr.2
E-------------------------|
B-------------------------|
G----------4----------4---|
D--6-6--4--4--6-6--4--4---|  x2
A--6-6--4--2--6-6--4--2---|
E--4-4--2-----4-4--2------|

Then song starts back at the top
SOLO

SAME AS THE INTRO WITH A PALM MUTE

NO Gtr.2 for solo

then go back to Chorus with
(Right before Chorus)

Gtr.2
E---------|
B---------|
G--8---6--|
D--8---6--|
A--6---4--|
E---------|

After Chorus songs ends on F#5

ORDER:

INTRO

VERSE

PRECHORUS

CHORUS

INTRO

VERSE

PRECHORUS

CHORUS

SOLO

CHORUS