Nothingface - God Kill Text Guitar Tab

Learn the song with the online tablature player
Band: Nothingface
Song: God Kill

Riff 1
E--------------------------------------------------------------|
B--------------------------------------------------------------|
G--------------------------------------------------------------|
D--------------------------------------------------------------|
A-------5h6-55-2h3-22-5h6-55---------5h6-55-2h3-22-5h6-55------|
D-3--3------------------------6-7--3-----------------------8-9-| x's 3

Riff 2
E-------------------------------------|
B-------------------------------------|
G-------------------------------------|
D-------------------------------------|
A-------------------------------------|
D-000000-6-00000-6-7-00000-6-0000-7-6-| x's 2
pm......   .....     .....   ....

Riff 3
E-----------------------|
B-----------------------|
G-----------------------|
D-----------------------|
A----5-3-2--------2---5-|
D-3--------x's 4--2---5-|   x's 2

Riff 1 x's 2

Riff 2

Riff 3

Riff 4
E-----------------------|
B-----------------------|
G-----------------------|
D-----------------------|
A-----3h4-3h4-3h4-3h4-5-|
D-00--------------------| x's 20
pm..

During "God Killed me" it's riff 4 turned down.

Riff 5
0's are pm'd, 1's are slightly released.
E------|
B------|
G------|
D------|
A-00-1-|
D-00-1-|  x's 30-ish
pm.. .

Riff 1 x's 2

Riff 2

Riff 3

Riff 5
kept losing count, but it's till the end anyway)