Novastar - Because Text Guitar Tab

Learn the song with the online tablature player
Novastar - Because (Solo)

e|---------------------|---------------------|
B|---------------------|---------------------|
G|---------------------|---------------------|
D|---------------------|---------------------|
A|-2----5----7----5--8-|-2----5----7----5--8-|
E|---------------------|---------------------|

e|------------------|
B|------------------|
G|------------------|
D|-9999999999999999-|
A|------------------|
E|------------------|

e|------------|----------------|------------|
B|------------|----------------|------------|
G|------------|----------------|------------|
D|-/6----2-4--|--6-7-6-----2-4-|-2----------|
A|------------|----------------|---4----2-1-|
E|------------|----------------|------------|

e|------------|----------------|------------|
B|------------|----------------|------------|
G|------------|----------------|------------|
D|-/6----2-4--|--6-7-6-----2-4-|-2----------|
A|------------|----------------|---4----2-1-|
E|------------|----------------|------------|

e|---------------------------|
B|---------------------------|
G|---------------------------|
D|---------------------------|
A|-2--4-44-5-55-44-5555-7777-|
E|---------------------------|