November Blessing - Love Text Guitar Tab

Learn the song with the online tablature player
Intro/verse

E--------------------------------------------------------------------|
A--------------------------------------------------------------------|
D--------------------------------------------------------------------|
G----44-----4-----------22----2----------00-----0--------------------|
B---------0---------00--------0------00-----------0-----00-----------|
e----------------00--------------00------------------00--------------|

E--------------------------|
A--------------------------|
D--------------------------|
G----22-----2--------------|
B---------0----------00----|
e-----------------00-------|

Chorus

046600---024400-----002200----024400

Part right after chorus

046600----006600----024400

After the second verse and chorus

The part where he sings "what do you think about me cause I cant stop thinking about
you" is the same same as the post chorus

046600----006600----024400

That's pretty much it.