November Blessing - This Gray Text Guitar Tab

Learn song with the online tabulature player
Tab by BlankAsGrey (adamfckingflawless@gmail.com)

This is just the main parts, (intro and verse), but the rest can be put out easy 
just using the chords.
Its my first tab so please don't bash too much. xD
But yeah, its a pretty easy song so enjoy~

PLEASE NOTE, ITS IN DROP-C, NOT STANDARD.
please and thank you. :)



|-------------Let Ring--------------|

|-----------------------------------|
|----------------0-----0-----0------|
|----------0-------0-----0-----0----|
|------2-----2-------2-----2-----2--|
|----2---2-----2--------------------|
|--0--------------------------------|


|-------------Let Ring--------------|

|-----------------------------------|
|----------------0-----0-----0------|
|----------0-------0-----0-----0----|
|------2-----2-------2-----2-----2--|
|----3---3-----3--------------------|
|--0--------------------------------|


|-------------Let Ring--------------|

|-----------------------------------|
|-----------------------------------|
|----------0-----0-----0-----0------|
|------4-----4-----4-----4-----4----|
|----5---5-----5-----5-----5-----5--|
|--0--------------------------------|


|-------------Let Ring--------------|

|-----------------------------------|
|----------------------0-----0------|
|----------0-----2-------0-----0----|
|------2-----2-----2-------2-----2--|
|----3---3-----3-----3--------------|
|--0--------------------------------|


|-------------Let Ring--------------|

|-----------------------------------|
|----------------0-----0-----0------|
|----------0-------0-----0-----0----|
|------2-----2-------2-----2-----2--|
|----2---2-----2--------------------|
|--0--------------------------------|


|-------------Let Ring--------------|

|-----------------------------------|
|----------------0-----0-----0------|
|----------0-------0-----0-----0----|
|------2-----2-------2-----2-----2--|
|----3---3-----3--------------------|
|--0--------------------------------|


|-------------Let Ring--------------|

|-----------------------------------|
|-----------------------------------|
|----------0-----0-----0-----0------|
|------4-----4-----4-----4-----4----|
|----5---5-----5-----5-----5-----5--|
|--0--------------------------------|


|-------------Let Ring--------------|

|----------------0------------------|
|----------------0------------------|
|----------0-----0------------------|
|------2-----2---2------------------|
|----3---3-----3-2------------------|
|--0-------------0------------------|


|-------------Let Ring--------------|

|-----------------------------------|
|--0-------0-------0-0---0---0------|
|--0-------0-------0-0---0---0------|
|--2-----2-2-----2-2-2---2---2---2--|
|--2-----2-2-----2-2-2---2---2---2--|
|--0-----0-0-----0-0-0---0---0---0--|


|-------------Let Ring--------------|

|-----------------------------------|
|--0-------0-------0-0---0---0------|
|--0-------0-------0-0---0---0------|
|--2-----2-2-----2-2-2---2---2---2--|
|--3-----3-3-----3-3-3---3---3---3--|
|--0-----0-0-----0-0-0---0---0---0--|


|-------------Let Ring--------------|

|-----------------------------------|
|--0-------0-------0-0---0---0------|
|--0-------0-------0-0---0---0------|
|--4-----4-4-----4-4-4---4---4---4--|
|--5-----5-5-----5-5-5---5---5---5--|
|--0-----0-0-----0-0-0---0---0---0--|