Novembers Doom - Torn Text Guitar Tab

Learn the song with the online tablature player
its me  BRENDAN COWAN  11 years old. I got the whole song down. Im not completely
sure if its right but im sure its close. so here

         2X                            2X
-----------------------------I-------------------------|
--0---3---5--3-3-3-----------I---7----5--5-5-----------|
--0---0------0-0-0-----------I---6----4--4-4-----------|
-----------------------------I---4----2--2-2-----------|  2X
-----------------------------I-------------------------|
-----------------------------I-------------------------|

---------------------------|
-10-10---------------------|
-9--9----------------------|
-7--7----------------------|
---------------------------|
---------------------------|

then do the intro again with gain and then when the vocals come, do the same thing
clean and stroke each chord 6 times

the 2nd guitarist does this all through the heavy parts
-------------------------------|
-------------------------------|
-------------------------------|
-5---4---2-----4----5----------|
-5---4---2-----4----5----------|
-5---4---2-----4----5----------|

--------------------------|
--------------------------|
--4-5-5-5-5-4-0--5-4-0-7--|       3x
--------------------------|
--------------------------|
--------------------------|

then the clean intro again as paul kuhr sings soft

then when the screaming comes, the heavy part again and then the outro (MOST OF IT DONT
THE OTHER PART)is

-----------------------------|
-----------------------------|
-7-6-4-9-7-6-4-6-7-7-6-4-----|  3 or 5X
-----------------------------|
-----------------------------|
-----------------------------|

---------------------------------|
---------------------------------|
---------------------------------|
----5--4---2---------------------|
----5--4---2---------------------|
----5--4---2---------------------|