Novembers Doom - Within My Flesh Text Guitar Tab

Learn the song with the online tablature player
Its me brendan again. Hrers another for all ya.

--------------------------------------------|
----------0h1-1------1-0-----0-1------------|
--------2----------------2------------------|
------2----------2-2-------2----------------|
----0---------------------------------------|
--------------------------------------------|

---------0----------------------------------------|
--3-1-3--0---0------------------------------------|
--2-2-2--0-----0----------------------------------|
--2-2-2--2-------2--------------------------------|
--0-0-0--2----------------------------------------|
---------0----------------------------------------|