Novice - So Temporary Text Guitar Tab

Learn the song with the online tablature player
p.m.- palm mute

intro

D#|---------| |------------------------------------------------------|
A#|---------| |------------------------------------------------------|
F#|---------| |------------------------------------------------------|
C#|---0-----| |------0---0---0---12---0---0---0---12----8---7--------| x2
G#|---0-----| |------0---0---0---12---0---0---0---12----8---7--------|
C#|---0-----| |------0---0---0---12---0---0---0---12----8---7--------|
                    p.m.------        p.m.-----

D#|-----------------| |----------------------------------------------|
A#|-----------------| |----------------------------------------------|
F#|-----------------| |----------------------------------------------|
C#|--10---10---10---| |--0---0---0---12---0---0---0---12---8---7-----|
G#|--10---10---10---| |--0---0---0---12---0---0---0---12---8---7-----|
C#|--8----8----8----| |--0---0---0---12---0---0---0---12---8---7-----|
                         p.m.------       p.m.-----
chorus

my emotion is dead....
D#|-----------------|
A#|-----------------|
F#|-----------------|
C#|--0---8---7---8--|
G#|--0---8---7---8--|
C#|--0---8---7---8--|

Bridge

D#|-------------------------------------------------|
A#|-------------------------------------------------|
F#|-------------------------------------------------|
C#|-------------------------------------------------|x3
G#|--------------1--0-------------------------------|
C#|--0--0--3--0--------0--3--0--0--3--0--5--5--5--5-|
     p.m.------------------------------------------

D#|----------------------------------------|
A#|----------------------------------------|
F#|----------------------------------------|
C#|----------------------------------------|
G#|--------------1--0----------------------|
C#|--0--0--3--0--------0--3--0--0--3--0--5-|
p.m.-------------------------------------

D#|-----------------------------------------|
A#|-----------------------------------------|
F#|-----------------------------------------|
C#|--0--0--3--0--8--7--0--3--0--0--3--0--5--|
G#|--0--0--3--0--8--7--0--3--0--0--3--0--5--|
C#|--0--0--3--0--8--7--0--3--0--0--3--0--5--|

Chorus