Noway - Vou Comer A Sua Bunda Por Tras Text Guitar Tab

Learn the song with the online tablature player
Guitar Chords Standard.

EADGBE

Intro.

--------------------------------------0--------------|
-------6------6-----6-----------4----------4---------|
----6----6-------6-----------4-----4-----------------|
--4-----------------------2--------------------------|
-----------------------------------------------------| \
                                                          Repeat 8x
----------0-----------------0------------------------| /
-------------0---0------------0----0-----------------|
------2--------2-------2---------2-------------------|
----2---2----------------2---------------------------|
--0-----------------0--------------------------------|
-----------------------------------------------------|

Chorus

C#    B                    A
Vou Comer a sua bunda por trás. 4x

--------------------------------------0--------------|
-------6------6-----6-----------4----------4---------|
----6----6-------6-----------4-----4-----------------|
--4-----------------------2--------------------------|
-----------------------------------------------------| \
                                                          Repeat 8x
----------0-----------------0------------------------| /
-------------0---0------------0----0-----------------|
------2--------2-------2---------2-------------------|
----2---2----------------2---------------------------|
--0-----------------0--------------------------------|
-----------------------------------------------------|

Chorus

C#    B                    A
Vou Comer a sua bunda por trás. 4x

Solo. Guitar make chorus 4x times.

Reggae Time!
all notes muted.

--------------------------------------0--------------|
-------6------6-----6-----------4----------4---------|
----6----6-------6-----------4-----4-----------------|
--4-----------------------2--------------------------|
-----------------------------------------------------| \
                                                          Repeat 8x
----------0-----------------0------------------------| /
-------------0---0------------0----0-----------------|
------2--------2-------2---------2-------------------|
----2---2----------------2---------------------------|
--0-----------------0--------------------------------|
-----------------------------------------------------|

Chorus 8 times.

NoWay - I will eat you a$$ from behind.