Nu - Any Other Girl Text Guitar Tab

Learn the song with the online tablature player
Band: NU

Album: Alphabravoshockpopdisco!

Written by: NU
Produced by: Adventure records

INTRO
e|---------------------------------|
B|---------------------------------|
G|-----4-----4---4-----4-------4---|
D|-----------------2-2---2---------|
A|-2-2---2-2---2-----------0-0---0-|
E|---------------------------------| (×2)

VERSE
.."excuses all around..."
e|------------------------------------|
B|------------------------------------|
G|------------------------------------|
D|-55555555-22222222-55555555-2222222-|
A|-55555555-22222222-55555555-2222222-|
E|-33333333-00000000-33333333-0000000-|

CHORUS
"come on baby show me"..
e|--------------------------------|
B|--------------------------------|
G|-4(×16)--7(×16)-----------------|
D|-4(×16)--7(×16)--5(×16)--2(×16)-|
A|-2(×16)--5(×16)--5(×16)--2(×16)-|
E|-----------------3(×16)--0(×16)-|

BRIDGING PART
e|---------------------------------|
B|---------------------------------|
G|-----4-----4---4-----4-------4---|
D|-----------------2-2---2---------|
A|-2-2---2-2---2-----------0-0---0-|
E|---------------------------------| (×2)

VERSE 2
.."excuses all around..."
e|------------------------------------|
B|------------------------------------|
G|------------------------------------|
D|-55555555-22222222-55555555-2222222-|
A|-55555555-22222222-55555555-2222222-|
E|-33333333-00000000-33333333-0000000-|

CHORUS 2
"come on baby show me"..
e|--------------------------------|
B|--------------------------------|
G|-4(×16)--7(×16)-----------------|
D|-4(×16)--7(×16)--5(×16)--2(×16)-|
A|-2(×16)--5(×16)--5(×16)--2(×16)-|
E|-----------------3(×16)--0(×16)-| (×2)

MIDDLE 8
e|------------------------|
B|------------------------|
G|--4-4--7-7--9-9---------|
D|--4-4--7-7--9-9--7-7-8--|
A|--2-2--5-5--7-7--7-7-8--|
E|-----------------5-5-6--| (×8)
(on the fourth set miss off the last
 3 chords)

CHORUS 3
"come on baby show me"..
e|--------------------------------|
B|--------------------------------|
G|-4(×16)--7(×16)-----------------|
D|-4(×16)--7(×16)--5(×16)--2(×16)-|
A|-2(×16)--5(×16)--5(×16)--2(×16)-|
E|-----------------3(×16)--0(×16)-|

(Play this to end of song)