Nuclear Assault - Radiation Sickness Text Guitar Tab

Learn the song with the online tablature player
                             Radiation Sickness - Nuclear Assault

I have the song on my profile incase you wanna hear or play along to

e|---------------------------------------------------------------------------|
B|---------------------------------------------------------------------------|
G|---------------------------------------------------------------------------|
D|----------2----------2----------2----------34-5-4--------------------------| x4
A|----------2----------2----------2----------34-5-4--------------------------|
E|--000000-----000000-----000000-----000000--12-3-2--------------------------|
    ******     ******     ******     ******

e|---------------------------------------------------------------------------|
B|---------------------------------------------------------------------------|
G|------9---9-9--------------------------------------------------------------|
D|------9---9-9----------888888----------------------------------------------| x8
A|------7---7-7----------888888----------------------------------------------|
E|--00-----------000000--666666----------------------------------------------|
    **           ******

e|---------------------------------------------------------------------------|
B|---------------------------------------------------------------------------|
G|---------------------------------------------------------------------------|
D|---------------------------------------------------------------------------| x8
A|-----------5--6------------------------------------------------------------|
E|--222222---3--4------------------------------------------------------------|
    ******

e|---------------------------------------------------------------------------|
B|---------------------------------------------------------------------------|
G|------9---9-9--------------------------------------------------------------|
D|------9---9-9----------888888----------------------------------------------| x4
A|------7---7-7----------888888----------------------------------------------|
E|--00-----------000000--666666----------------------------------------------|
    **           ******

e|---------------------------------------------------------------------------|
B|---------------------------------------------------------------------------|
G|---------------------------------------------------------------------------|
D|---------------------------------------------------------------------------| x8
A|-----------5--6------------------------------------------------------------|
E|--222222---3--4------------------------------------------------------------|
    ******

e|---------------------------------------------------------------------------|
B|---------------------------------------------------------------------------|
G|---------------------------------------------------------------------------|
D|----------2----------2----------2----------34-5-4--------------------------| x4
A|----------2----------2----------2----------34-5-4--------------------------|
E|--000000-----000000-----000000-----000000--12-3-2--------------------------|
    ******     ******     ******     ******

(SOLO RYTHEM)
e|---------------------------------------------------------------------------|
B|---------------------------------------------------------------------------|
G|---------------------------------------------------------------------------|
D|---------------------------------------------------------------------------| x4
A|--9--7--6--7--5--3---------------------------------------------------------|
E|--7--5--4--5--3--1---------------------------------------------------------|

e|---------------------------------------------------------------------------|
B|---------------------------------------------------------------------------|
G|---------------------------------------------------------------------------|
D|----------2----------2----------2----------34-5-4--------------------------| x4
A|----------2----------2----------2----------34-5-4--------------------------|
E|--000000-----000000-----000000-----000000--12-3-2--------------------------|
    ******     ******     ******     ******

e|---------------------------------------------------------------------------|
B|---------------------------------------------------------------------------|
G|------9---9-9--------------------------------------------------------------|
D|------9---9-9----------888888----------------------------------------------| x4
A|------7---7-7----------888888----------------------------------------------|
E|--00-----------000000--666666----------------------------------------------|
    **           ******

e|---------------------------------------------------------------------------|
B|---------------------------------------------------------------------------|
G|---------------------------------------------------------------------------|
D|---------------------------------------------------------------------------| x8
A|-----------5--6------------------------------------------------------------|
E|--222222---3--4------------------------------------------------------------|
    ******

e|---------------------------------------------------------------------------|
B|---------------------------------------------------------------------------|
G|---------------------------------------------------------------------------|
D|----------2----------2----------2----------34-5-4--------------------------| x4
A|----------2----------2----------2----------34-5-4--------------------------|
E|--000000-----000000-----000000-----000000--12-3-2--------------------------|
    ******     ******     ******     ******

| /  slide up
| \  slide down
| h  hammer-on
| p  pull-off
| ~  vibrato
| +  harmonic
| *  Palm Mute

THE END