Nuclear Rabbit - Dead Things Come In Pairs Text Guitar Tab

Learn song with the online tabulature player
----------------------------------------------------------------------------
                             Dead Things Come In Pairs - Nuclear Rabbit
----------------------------------------------------------------------------
Tabbed by:kenvyn123
Email:kenvyn4@hotmail.com

Tuning:standard
 
Bass Part
G|---------------|
D|---------------|
A|-------5\6-6---|
E|-4-4-4-------5-|

Guitar Part
e|---------------|
B|---------------|
G|---------------|
D|---------------|
A|-------4\5-5---|
E|-3-3-3-------4-|

i did star to count how meny time you repeat it but i lost count after in hit 30 odd. 

enjoy

| /  slide up
| \  slide down
| h  hammer-on
| p  pull-off
| ~  vibrato
| +  harmonic
| x  Mute note
============================================================================