Number Girl - Nagisa Ni Te Text Guitar Tab

Learn song with the online tabulature player
Main Riff

There are slight variations of which strings are hit throughout the song, but this 
give you a feel.
e|--------------------------------|
B|--------------------------------|
G|-----0-----3-3-0----------------|
D|--2-----2--------3-0------------|
A|--3----------------------0-2----|
E|-----------------------3-----3--|

After the main riff, three G chords are played. Listen to the song for timing.

Starting at around 0:18, the rhythm guitar plays this over the main riff. More 
over which strings are hit, but this is the main idea.
e|----------------------------------|
B|--5--5--5--6--5--6--5---3--3--3---|
G|--5--5--5--5--5--5--5---4--4--4---|
D|--5--5--5--5--5--5--5---5--5--5---|
A|----------------------------------|
E|----------------------------------|

At 0:32, the chorus appears for the first time. Again, more variations, but this sounds okay.
e|--------1---------------3----------|
B|------1---1-----------3---3--------|
G|----2------2--------4-------4------|
D|---3--------------5----------------|
A|-----------------------------------|
E|--1------------1/3-----------------|