Number One Fan - Sorry Text Guitar Tab

Learn the song with the online tablature player
                             Sorry - Number one Fan

I doubt this is right, but it sounds good to me when I play along
to the CD. I appreciate any suggestions via email or AIM.

I thought you would know if I turned around
If I go you'll live without
All the things I hoped you say by now, never came out

Gt. 2 plays this through this verse
e|---------------------|
B|---------------------|
G|-----------------5---|
D|-----5-----5---------|
A|--3-----3-----3------|
E|---------------------|

Gt. 1 plays these chords with distortion between verses
(listen for rythem)
    E    D    C      F#
e|----------------------------------------------------------------------|
B|----------------------------------------------------------------------|
G|--9----7----5---------------------------------------------------------|
D|--9----7----5------4--------------------------------------------------|
A|--7----5----3------4--------------------------------------------------|
E|-------------------2--------------------------------------------------|

Dont say what you mean Im not ready for that
All the things sounded so appropriate at the time
Dont say what you mean Im not ready for that
Not yet

Gt. 2 plays this through this verse
e|---------------------|
B|---------------------|
G|-----------------5---|
D|-----5-----5---------|
A|--3-----3-----3------|
E|---------------------|

Gt. 1 plays these chords between verses with distortion
(listen for rythem)
    E    D    C      F#                     F#       G
e|----------------------------------------------------------------------|
B|----------------------------------------------------------------------|
G|--9----7----5---------------------------------------------------------|
D|--9----7----5------4----------------------4-4-4--5-5-5----------------|
A|--7----5----3------4----------------------4-4-4--5-5-5----------------|
E|-------------------2----------------------2-2-2--3-3-3----------------|
                                   this is clean ^

I thought you would know if I turned around
If I go
you'll live without
all the things I hoped you'd say by now
never came out

Gt. 1 plays just C for this verse, I think (I can't figure out Gt. 2)

e|---------------------------------------------------------------------|
B|---------------------------------------------------------------------|
G|----5----------------------------------------------------------------|
D|----5----------------------------------------------------------------|
A|----3----------------------------------------------------------------|
E|---------------------------------------------------------------------|

Gt. 1 plays these chords between verse and chorus with distortion
(listen for rythem)
    E    D    C      F#     F#     G         C    G/c
e|-----------------------------------------------------------------------|
B|-----------------------------------------------------------------------|
G|--9----7----5----------------------------5-5-5-4-4-4-------------------|
D|--9----7----5------4-----4-4-4--5-5------5-5-5-5-5-5 a few times-------|
A|--7----5----3------4-----4-4-4--5-5------3-3-3-3-3-3 with distortion---|
E|-------------------2-----2-2-2--3-3------------------------------------|
                     this is clean ^
Im sorry now
Hope that youre happy
Im sorry now
I thought you would understand
Im sorry now
Hope that youre happy again

Gt. 1 plays this during the chorus with distortion
e|-----------------------------------------------------------------------|
B|-----------------------------------------------------------------------|
G|-----5-5-5-4-4-4-------------------------------------------------------|
D|-----5-5-5-5-5-5 over and over  ---------------------------------------|
A|-----3-3-3-3-3-3-------------------------------------------------------|
E|-----------------------------------------------------------------------|

Dont play with me
Im as hurt as they come
Do away with me
I havent had fun since we broke up
And now I must grow up you said
Change, the only thing I hate more than you

Gt. 2 plays this through this verse again...
e|---------------------|
B|---------------------|
G|-----------------5---|
D|-----5-----5---------|
A|--3-----3-----3------|
E|---------------------|
Gt. 1 plays just C for this verse, I think

e|----------------------------------------------------------------------|
B|----------------------------------------------------------------------|
G|----5-----------------------------------------------------------------|
D|----5-----------------------------------------------------------------|
A|----3-----------------------------------------------------------------|
E|----------------------------------------------------------------------|

Im sorry now
Hope that youre happy
Im sorry now
I thought you would understand
Im sorry now
Hope that youre happy again

Gt. 1 plays this during the final chorus with distortion
e|-------------------------------------------------------------------------|
B|-------------------------------------------------------------------------|
G|-----5-5-5-4-4-4---------------------------------------------------------|
D|-----5-5-5-5-5-5 over and over  -----------------------------------------|
A|-----3-3-3-3-3-3---------------------------------------------------------|
E|-------------------------------------------------------------------------|

Gt.1 outro (clean) (again, can't figure out Gt. 2)

e|-------------------------------------------------------------------------|
B|---9-9-9-9-9-9-7-7-7-7-7-7-10-10-10-10-10-10-9-9-9-9-9-9-----------------|
G|---9-9-9-9-9-9-9-9-9-9-9-9-9--9--9--9--9--9--9-9-9-9-9-9 repeat----------|
D|-------------------------------------------------------------------------|
A|-------------------------------------------------------------------------|
E|-------------------------------------------------------------------------|

I think thats it.

| /  slide up
| \  slide down
| h  hammer-on
| p  pull-off
| ~  vibrato
| +  harmonic
| x  Mute note