Number One Gun - On And On Text Guitar Tab

Learn song with the online tabulature player
-----------------------------------------------------------------------------
                             On And On - Number One Gun
-----------------------------------------------------------------------------
Tabbed by: Sam Ho
Email: skatefreak94@sbcglobal.net

Another amazing song by an amazing band. There are some other sounds going on in the 
that I haven't figured out, but besides that, this tab is probably 99% complete and accurate

Tuning: Standard

:::::VERSE 1: ALL PALM MUTED:::::

Guitar 1:
"Could you be..."
e|---------------------------------------------------------------------------|
B|---------------------------------------------------------------------------|
G|6666666-6666666-9999-----11111111------------------------------------------|
D|6666666-6666666-7777-777-9-9-9-9--999--------------------------------------|
A|4444444-4444444-7777-777-9-9-9-9--777--------------------------------------|
E|---------------------555----------777--------------------------------------|

Guitar 1 and 2 Right Before Chorus
e|---------------------------------------------------------------------------|
B|4b5r4-0--------------------------------------------------------------------|
G|---------------------------------------------------------------------------|
D|---------------------------------------------------------------------------|
A|---------------------------------------------------------------------------|
E|---------------------------------------------------------------------------|

:::::CHORUS:::::
e|--------------------------------------------------------------------------|
B|--------------------------------------------------------------------------|
G|66666666-9999-77777777-44444444-------------------------------------------|
D|44444444-7777-55555555-44444444-------------------------------------------|
A|44444444-7777-55555555-22222222-------------------------------------------|
E|--------------------------------------------------------------------------|

:::::VERSE 2::::::
[Same as verse 1]

:::::CHORUS:::::::
[Same as Chorus]

:::::SOLO:::::                     First Time    Last Time
e|--------------------------------|----------|----------------|--------------|
B|55--55--55--55-5h6p5-55--55-----|----------|---4b5r4b5r4----|--------------|
G|--44--44--44--4--------44--44---|-4444-----|----------------|--------------|
D|--------------------------------|-4444-----|----------------|--------------|
A|--------------------------------|-2222-----|----------------|--------------|
E|--------------------------------|----------|----------------|--------------|

:::::BRIDGE:::::

Guitar 1:
e|--------------------------------------------------------------------------|
B|--------------------------------------------------------------------------|
G|66666666-99999999---------------------------------------------------------|
D|44444444-77777777-44444444-77777777---------------------------------------|
A|44444444-77777777-22222222-55555555---------------------------------------|
E|------------------22222222-55555555---------------------------------------|

Guitar 2:
e|------11---------11--------------------------------------------------------|
B|9----9-----9----9----------------------------------------------------------|
G|----9----------9-----------------------------------------------------------|
D|---------------------------------------------------------------------------|
A|---------------------------------------------------------------------------|
E|---------------------------------------------------------------------------|

:::::OUTRO:::::

Guitar 1:
"Could you lead me on.."
e|---------------------------------------------------------------------------|
B|---------------------------------------------------------------------------|
G|---------------------------------------------------------------------------|
D|77777777-99999999-------x7-------------------------------------------------|
A|55555555-77777777----------------------------------------------------------|
E|55555555-77777777----------------------------------------------------------|


| b  bend
| r  release
| h  hammer-on
| p  pull-off
=============================================================================