Number One Gun - The People Text Guitar Tab

Learn the song with the online tablature player
e|------------------------------------------------|
B|------------------------------------------------|
G|------------------------------------------------| X2
D|----0-------0-----0---------0-------0-----0-----|
A|---2-------2-----2---------2-------2-----4------|
E|--0-------3-----2---------0-------3-----5-------|

e|-----------------------------------------|
B|-----------------------------------------|
G|----0-------0-------0-------0-----0------| X2
D|---2-------4-------5-------5-----5-------|
A|--3-------5-------7-------------5--------|
E|--------------------------3--------------|