Number One Gun - There Is Hope Text Guitar Tab

Learn the song with the online tablature player
                     Number One Gun - There is Hope

I love this song and I have most of the song figured out but I cannot figure out the
If you figure it out please contact me and I will put it on here and give you credit.

Guitar 1
|---3---4|      |---3---3---4-|
|-4---4--|      |-4---4---4---|
|--------|      |-------------|
|--------|X1    |-------------|X13
|--------|      |-------------|
|--------|      |-------------|

Guitar 2
e|--------------------------------------------------------------|
b|--------------------------------------------------------------|
g|------3-------3-----3-----3-------3-----3-----3-------3-----3-|
d|----1-------1-----1-----1-------1-----1-----1-------1-----1---|
a|----------1-----3-------------1-----3-------------1-----3-----|
E|--4-----4-------------4-----4-------------4-----4-------------|

e|------------------------------------------------------|
b|------------------------------------------------------|
g|-----3---3---3-------3---3---3-------3--------3-----3-|
d|-1-1---1---1---1-3-3---3---3---3-1-1--------1-----1---|
a|------------------------------------------1-----3-----|
E|----------------------------------------4-------------|

e|------------------------------------|
b|------------------------------------|
g|--------3-----3-----3-------3-----3-|
d|------1-----1-----1-------1-----1---|
a|----1-----3-------------1-----3-----|
E|--4-------------4-----4-------------|

e|------------------------------------------------------|
b|------------------------------------------------------|
g|-----3---3---3-------3---3---3-------3--------3-----3-|
d|-1-1---1---1---1-3-3---3---3---3-1-1--------1-----1---|
a|------------------------------------------1-----3-----|
E|----------------------------------------4-------------|

e|------------------------------------|
b|------------------------------------|
g|--------3-----3-----3-------3-----3-|
d|------1-----1-----1-------1-----1---|
a|----1-----3-------------1-----3-----|
E|--4-------------4-----4-------------|

e|----------------------------------|
b|----------------------------------|
g|-----3---3---3-------3---3---3----|
d|-1-1---1---1---1-3-3---3---3---3--|
a|----------------------------------|
E|----------------------------------|

e|-----------------------------------|
b|-----------------------------------|
g|-----3---3---3-------3---3---3-----|
d|-1-1---1---1---1-3-3---3---3---3-1-|
a|-----------------------------------|
E|-----------------------------------|

| /  slide up
| \  slide down
| h  hammer-on
| p  pull-off
| ~  vibrato
| +  harmonic
| x  Mute note