Nume - All Over Again Text Guitar Tab

Learn song with the online tabulature player
Drop d tuning
Intro
e------------------------------------------------------------------
b------------------------------------------------------------------
g------------------------------------------------------------------
d------------------------------------------------------------------x2
a------------------------------------------------------------------
d-0-1-3---0-3-5--0-1-3--0-3-5--------------------------------------


verse


e------------------------------------------------------------------
b------------------------------------------------------------------
g------------------------------------------------------------------
d------------------------------------------------------------------x4
a------------------------------------------------------------------
d-111111111111111111---333333333333333333333-0---------------------

chorus


e------------------------------------------------------------------
b------------------------------------------------------------------
g------------------------------------------------------------------
d-111111111111111111---333333333333333333333-0---------------------x2
a-111111111111111111---333333333333333333333-0---------------------
d-111111111111111111---333333333333333333333-0---------------------


outro

e------------------------------------------------------------------
b------------------------------------------------------------------
g------------------------------------------------------------------
d-0-3-5-0-3-5-0-3-5-0-3-5-0----------------------------------------x2
a-0-3-5-0-3-5-0-3-5-0-3-5-0----------------------------------------
d-0-3-5-0-3-5-0-3-5-0-3-5-0----------------------------------------