Nume - Kill You Text Guitar Tab

Learn song with the online tabulature player
Nume

  Intro


e-------------------------------------------------------
b-------------------------------------------------------
g-------------------------------------------------------
d-------8----------7---------2---------5----------------x4
a-----8---8------7---7-----2---2-----5---5--------------
d---8----------7---------2---------5--------------------



e-------------------------------------------------------
b-------------------------------------------------------
g-------------------------------------------------------
d---8------7-------222--5---222-------------------------x2
a---8-x8---7--x8---222--5---222-------------------------
d---8------7-------222--5---222-------------------------