Nursery Rhyme - This Old Man Knick-knack Paddy Whack Text Guitar Tab

Learn the song with the online tablature player
|-2---2----||-2---2----||-4-2-0----||----------||-2--------|
|---4------||---4------||-------4--||2-4-5--4-5||---0-0-0-0|
|----------||----------||----------||----------||----------|
|----------||----------||----------||----------||----------|
|----------||----------||----------||----------||----------|
|----------||----------||----------||----------||----------|

|--------2-||-2------0-||----------|
|-2-4-5----||---2-2----||-4--2--0~-|
|----------||----------||----------|
|----------||----------||----------|
|----------||----------||----------|
|----------||----------||----------|