Nusrat Fateh Ali Kahn - Kamli Wala Muhammad Nabi Mustafa Text Guitar Tab

Learn song with the online tabulature player
Here is the Tabs I've put together for this song. The asterisk means that you would have 
pluck that note many times in a row. If you listen to the song, you can figure out the 
times you'll need to pluck. It's not perfect, but it does the trick.

|---11-13s14*--13-11-13*--11--11*-13-11-------|
|-13------------------------13----------------|
|---------------------------------------------|
|---------------------------------------------|
|---------------------------------------------|
|---------------------------------------------|


|---------------------16-16-14-16-14-11-------|
|-13-13-12-13---9-7---------------------------|
|---------------------------------------------|
|---------------------------------------------|
|---------------------------------------------|
|---------------------------------------------|