Nutbar - Makin Niggers Horny In The Back Of Shoneys Text Guitar Tab

Learn the song with the online tablature player
This is a song by NuTbAr, makin' niggers horny in the back of shoney's.

the website is nutbar.iuma.com

e|--------------------------------------------------------------------
B|--------------------------------------------------------------------
G|--------------------------------------------------------------------
D|--------------------------reapeat until "gimme head"----------------
A|-----------2-4-2-4-2------------------------------------------------
E|--2-2-5-5------------5----------------------------------------------

gimme head goes like this

e|--------------------------------------------------------------------
B|--------------------------------------------------------------------
G|--------------------------------------------------------------------
D|----------gimme head----------------------------gimme head----------
A|------------------------------2-4-2-4-2-----------------------------
E|--2-2-----------------2-2-5-5-----------5-2-2-----------------------

thats the song now here are the lyrics

Makin' Niggers Horny In The Back Of Shoney's

Makin' niggers horny in the back of shoney's.
Makin' niggers horny in the back of shoney's.
Chicka Chicka. Nigger please.
Makin' niggers horny in the back of shoney's.
Makin' niggers horny in the back of shoney's.
Chicka chicka. Nigger please.
Makin' niggers horny in the back of shoney's.
Makin' niggers horny in the back of shoney's.
Chicka chicka. Nigger please.
Gimme head.
Gimme head.
Gimme head.
Gimme head.
Makin' niggers horny in the back of shoney's.
Makin' niggers horny in the back of shoney's.
Chicka chicka. Nigger please.
Makin' niggers horny in the back of shoney's.
Makin' niggers horny in the back of shoney's.
Chicka chicka. Nigger please.
Makin' niggers horny in the back of shoney's.
Makin' niggers horny in the back of shoney's.
Chicka chicka. Nigger please.
Gimme head.
Gimme head.
Gimme head.
Gimme head.
Makin' niggers horny in the back of shoney's.
Makin' niggers horny in the back of shoney's.
Chicka chicka. Nigger please.
Makin' niggers horny in the back of shoney's.
Makin' niggers horny in the back of shoney's.
Chicka chicka. Nigger please.
Makin' niggers horny in the back of shoney's.
Makin' niggers horny in the back of shoney's.
Chicka chicka. Nigger please.
Gimme head.
Gimme head.
Gimme head.
Gimme head.