Nxzero - Razes E Emoes Text Guitar Tab

Learn the song with the online tablature player
                             SONG NAME - Band Name

e|---------------------------------------------------------------------------|
B|--6---6----6----6---6---6--6-----------------------------------------------|
G|---8-8--8-8--8-8--8--8--8--------------------------------------------------|
D|---------------------------------------------------------------------------|
A|---------------------------------------------------------------------------|
E|---------------------------------------------------------------------------|
gtr 2 intro
  D#5         D#5/D      C5          A#5   + in between every strum hit twice
e|----------|----------|----------|----------------|-------------------------|
B|----------|----------|----------|----------------|-------------------------|
G|---8------|---8------|---5------|---3--------(3)-|-------------------------|
D|---8--x16-|---8--16x-|---5--16x-|---3--8x----(3)-|-------------------------|
A|---6------|---5------|---3------|---1--------(1)-|-------------------------|
E|----------|----------|----------|----------------|-------------------------|   .
  .          .          .         .

Verse
gtr 1+2
e|----------|----------|----------|-------------|----------------------------|
B|----------|----------|----------|-------------|----------------------------|
G|---8------|---8------|---5------|---3---------|---<2x----------------------|
D|---8--x16-|---8--16x-|---5--16x-|---3-8x/16x?-|---pm first time---then->---|
A|---6------|---5------|---3------|---1---------|----------------------------|
E|----------|----------|----------|-------------|----------------------------|
pre-chorus
    F5 F/E                            G5    G#5
e|---------------------------------|------------|-------------------------------|
B|---------------------------------|------------|-------------------------------|
G|---------------------------------|-5---/-6----|-------------------------------|
D|---3--3--------------------------|-5---/-6----|-------------------------------|
A|---3--3--repeat couple of times--|-3---/-4----|-------------------------------|
E|---1--0--------------------------|------------|-------------------------------|
chorus
   C5       G#5       D#5     A#5
e|-------|--------|-------|---------|----------------------------------------|
B|-------|--------|-------|---------|----------------------------------------|
G|-5-----|--------|-8-----|---------|----------------------------------------|
D|-5-5x--|-6------|-8-----|-8-------|----------------------------------------|
A|-3-----|-6------|-6-----|-8-------|----------------------------------------|
E|-------|-4------|-------|-6-------|----------------------------------------|

                                 order:
                                 intro
                                 verse
                               pre-chorus
                                chorus2x
                                  intro
                                  verse
                                pre-chorus

chorus2x
played softly kinda)
                        build up A#5 (0n posso esperar)
                              chorus2x normal

essa tablatura tambem pode ser usada pra versão acustica :)

| () release your fingers a tiny tiny bit
| /  slide up
| \  slide down
| h  hammer-on
| p  pull-off
| ~  vibrato
| +  harmonic
| x  Mute note