Nyoy Volante - Tanggap Ko Text Guitar Tab

Learn the song with the online tablature player
Tanggap Ko

Nyoy Volante

Intro

E|----------------------|---------------------|
B|-------3------3-----3-|-------3------3------|
G|----0-------0-----0---|----0-------0--------|
D|--4-------4-----4-----|--4-------4----------|
A|----------------------|---------------------|
E|-------3--------------|-------0-------------|

E|---------------------3--|--------------5~----|
B|--3-----3--1p0-1----1---|-----3~------3~-----|
G|-------0-----------0----|----3~------3~------|
D|------2-----------2-----|---1~---------------|
A|-----0-----------0------|--3~----------------|
E|------------------------|--------------------|

Verse

"Aking nararamdamang..."

E|--2---0---3---0-0--|
B|--3---3---1---3-3--|
G|--0---0---0---2-2--|
D|--0---x---2---0-0--|
A|--x---2---0-----x--|
E|--3---0---------2--|

Refrain

"Ngunit sadyang ganyan ang pag-ibig..."

E|------3----3---3-0----|
B|-5-4--3----1---3-1----|
G|-4-4--0----0---2-2----|
D|-4-4--x----2---0-0----|
A|-2-2--2----0----------|
E|------0---------------|

Chorus

"Tanggap ko...

E|--3---3---3---3--|
B|--3---3---1---3--|
G|--0---0---0---2--|
D|--0---2---2---0--|
A|--2---2---0------|
E|--3---0----------|

"Aking nadarama sa iyo..."

E|------3-3--------|
B|--3---0-1---0h1--|
G|--3---0-0------0-|
D|--1---0-0---0h2--|
A|--3---2-2--------|
E|------3-3--------|

Verse 2

Repeat Chorus

Lead-in before bridge

E|-8p7-----5h7/---|
B|-----8----------|
G|-------7--------|
D|----------------|
A|----------------|
E|----------------|

Bridge

"Anuman ang iyong dahilan..."

E|-----0--3--3--3--|
B|--0--3--3--1--3--|
G|--0--2--0--0--2--|
D|--2--0--2--2--0--|
A|--3-----2--0-----|
E|--------0--------|

"Lumigaya ka..."

Last Chorus--same as above

"Sa iyo... mahal ko.."

E|--2---0-0---|
B|--3---0-0---|
G|--2---2-1---|
D|--4---2-2---|
A|--2---2-2---|
E|------0-0---|

"Sa iyo.."

E|----------------|-----------------0-|
B|-------------3--|----------3-----1--|
G|--------0-------|------0--------2---|
D|------0---0-----|----0---0-----0----|
A|----------------|-------------------|
E|--3-------------|-0-----------------|

E|--2------3p2-----3---5~|
B|--3----3-----3---------|
G|--0--0---------0---0---|
D|--0--------------------|
A|--x--------------------|
E|--3--------------------|

Manor, TX. September 1, 2004, 5:56 PM

My warmest thanks to:

AFS INTERCULTURAL PROGRAMS PHILIPPINES

REPUBLIC OF THE PHILIPPINES
Division of City Schools of Makati
Mayor Jejomar C Binay
Ms Elena R Ruiz

MAKATI SCIENCE HIGH SCHOOL
Eric Ebia, Jr (BISYO NA 'TO!!!)
Hanz Billy John Magat
Francis Vincent Co
Jodessa Piloton
Reinzy Colle
John Santos
Janie Maye Mamangon
Camille Vanessa Vidad
Maria Christina Santiago Reyes

Dedicated to...

J.A.S.B. 2004 (Love ko 'to!)