O.A.R. - Bill And I Text Guitar Tab

Learn song with the online tabulature player
-----------------------------|
-----------------------------|
O.A.R. (...of a revolution)
Bill and I
tabbed from 1.17.01
-----------------------------

------------------------------|
e---3---3---3--3--3-----------|
b---3---3---3--3--3-----------|
g-----------------------------|
d-----------------------------|
a---2---3---2-----2-----------|
E---3-------3--2--3-----------|
------------------------------|

-----------------------------
Questions/Comments:
joshpwc@yahoo.com
    -o(a)r-
OARSA.ORG
----------------------------|
----------------------------|