O.A.R. - Dareh Meyod Text Guitar Tab

Learn song with the online tabulature player
O.A.R.

Dareh Meyod

Intro

e-----------------------------|
b-----------------------------|
g-----------------------------|
d-----------------------------|
a---4-4-2-4-2-------------2---|
E-------------4-2-4-4-2-4-----|

Verse/chorus

e---4---4---|
b---5---4---|
g---6---4---|
d---6---6---|
a---4---6---|
E---4---4---| 3x

e---5---7(0)---|
b---5---7(0)---|
g---6---8(1)---|
d---7---9(2)---|
a---7---9(2)---|
E---5---7(0)---|

Questions/Comments:
joshpwc@yahoo.com
OARSA.ORG