O.A.R. - Dinner Last Night Text Guitar Tab

Learn song with the online tabulature player
OAR
Dinner Last Night

Lead
   
e|-9---12-------------------------------------------------------------|
B|--------------------------------------------------------------------|
G|----------------------11/13-11-9----11-9----9~~~----------9-11-11---|
D|---------------------------------11------11------------11-----------|
A|--------------------------------------------------------------------|
E|--------------------------------------------------------------------|

e|--------------------------------------------------------------------|
B|--------------------------------------------------------------------|
G|-11/13-11-9-----------------11/13-11-9----11-9----9-----------------|
D|------------11-9-9---------------------11------11-----11-9----9^11--|
A|--------------------------------------------------------------------|
E|--------------------------------------------------------------------|

e|-------------------------------------|
B|-------------------------------------|   
G|-9-9^11-11/13-11/9-------------------|  
D|-------------------11-9-9------------|      
A|-------------------------------------|
E|-------------------------------------|




Backup

E 

x---4----4/5
9---4----4/5 
9---5----5/6
9---6----6/7
7---6----6/7
x---4----4/5


Questions/Comments:
joshpwc@yahoo.com
or
oarsa.org