O.A.R. - Favorite Book Of Poetry Text Guitar Tab

Learn the song with the online tablature player
-----------------------------|
-----------------------------|
of a revolution
OAR
Favorite Book of Poetry Tabs

------------------------------|
e-----1-----------3-----------|
b-----1-----1-----3-----------|
g-----2-----0-----------------|
d-----3-----2-----x-----------|
a-----3-----3-----2-----------|
E-----1-----------3-----------|
------------------------------|

or

oarsa.org
----------------------------|
----------------------------|