O.A.R. - Hey Girl Acoustic Text Guitar Tab

Learn the song with the online tablature player
                             Hey Girl Acoustic - Of a Revolution

------------->Strum at the same pattern as the regular "Hey Girl"<----------

------------------>This is the version Marc plays on the DVD to "In Between Now and
Then" when the band goes to the radio station. Sounds pretty cool but different. Also
sounds pretty cool if you add another guitar in and have one play the higher pitched
bar chords and one play the normal chords.

VERSE
e|---------9---------------------------------------------------------------|
B|---------9-------5--------7--------5-------------------------------------|
G|---------9-------6--------8--------6-------------------------------------|
D|---------9-------7--------9--------7-------------------------------------|
A|---------7-------0--------0--------0-------------------------------------|
E|---------0-------0--------0--------0-------------------------------------|

CHORUS
e|-------------------------------------------------------------------------|
B|-----------------2--------4---------2------------------------------------|
G|--------1--------2--------4---------2------------------------------------|
D|--------2--------2--------4---------2------------------------------------|
A|--------2-----------------2----------------------------------------------|
E|-------------------------------------------------------------------------|