O.A.R. - Love And Memrories Text Guitar Tab

Learn song with the online tabulature player
This is the tab for Rich's lead guitar


e|----------------------9-----------------------------------|
B|-12----9-10-9--------------9-10-9-------------------------|
G|----11 -------11-9-11---11--------11-9--------------------|
D|----------------------------------------------------------|
A|----------------------------------------------------------|
E|----------------------------------------------------------|

e|----------------------9-----------------------------------|
B|-12----9-10-9--------------9-10-9-------------------------|
G|----11 -------11-9-11---11--------11-9-11-9---------------|
D|----------------------------------------------------------|
A|----------------------------------------------------------|
E|----------------------------------------------------------|


-drham24@aol.com
for more tabs, visit www.oarsa.org