O.A.R. - One Shot Text Guitar Tab

Learn the song with the online tablature player
Intro
(All Barre Chords)

|-1---3---1-1---3----1-|
|-1---5---3-3---3----1-|
|-2---5---3-3---4----2-|  (2x)
|-3---5---3-3---5-or-3-|
|-3---3---1-1---5----3-|
|-1---3---1-1---3----1-|

Verse
(For Sax Solo before the first verse strum and during actual verse play with reggae
style)

|-1-1-8-8-6-6-3-3-|
|-1-1-8-8-6-6-3-3-|
|-----------------|
|-----------------|
|-----------------|
|-----------------|

Me Brand New Say, I Say! (Pre-chorus):

|1-1-3-3-|
|3-3-5-5-|
|3-3-5-5-|
|3-3-5-5-|
|1-1-3-3-|
|1-1-3-3-|

Chorus

(One Shot Part)

|-1-1---3-3--|
|-1-1---5-5--|
|-2-2---5-5--| (Repeat until “Stranger” Part)
|-3-3---5-5--|
|-3-3---3-3--|
|-1-1---3-3--|

(Stranger Part)

|-1-1---3-3-|
|-3-3---5-5-|
|-3-3---5-5-|
|-3-3---5-5-|
|-1-1---3-3-|
|-1-1---3-3-|

During some choruses he goes into an extended stranger part (Around the world).
an Aminor chord or the other chord I posted sounds about right.

|0----5-|
|1----5-|
|2-or-5-|
|2----7-|
|0----7-|
|0----5-|

|-5-|
|-6-|
|---|
|---|
|---|
|---|

That is also played during the bridge (which leads into another chorus)