O.A.R. - That Was A Crazy Game Of Poker Live Text Guitar Tab

Learn song with the online tabulature player
|----------------------------|
|----------------------------|
|----------------------------|
|----0-2-3-7-5-5-5-----0-2-3-|
|3-3---------------3-3-------|
|----------------------------|

|-12-
|-13-
|----
|----
|----
|----

|----------------------------|
|----------------------------|
|----------------------------|
|----0-2-3-7-5-5-5-----0-2-3-|
|3-3---------------3-3-------|
|----------------------------|

Verse 2:

|-------------------------------|
|-----------------------------5-|
|-4-6-4---4-6-4---4-6-4---4-6---|
|-------------------------------|
|-------------------------------|
|-------------------------------|
(Keep doing the verse part while listening to the song to see how many times to do it.)