O.A.R. - Wanderer Text Guitar Tab

Learn the song with the online tablature player
Intro/Verse

 F F   PM  Cmaj/G PM    Dm   PM
|1-1-xxxxxx-3-3--xxxxxx-5-5-xxxxxx-5-x-5-x-5-x-|
|1-1-xxxxxx-5-5--xxxxxx-6-6-xxxxxx-6-x-6-x-6-x-|
|2-2-xxxxxx-5-5--xxxxxx-7-7-xxxxxx-7-x-7—x-7-x-|
|3-3-xxxxxx-5-5--xxxxxx-7-7-xxxxxx-7-x-7-x—7-x-|
|3-3-xxxxxx-3-3--xxxxxx-5-5-xxxxxx-5-x-5-x-5-x-|
|1-1-xxxxxx-3-3--xxxxxx-----xxxxxx---x---x---x-|

Guitar 2
|1-1-1---1-1-1---8-8-8---8-8-8---10-10-10---10-10-10-|
|1-1-1---1-1-1---8-8-8---8-8-8---10-10-10---10-10-10-|
|----------------------------------------------------|
|----------------------------------------------------|
|----------------------------------------------------|
|----------------------------------------------------|

Chorus

 F F F  F F F  Cmaj/G Cmaj/G  DmDmDm DmDmDm
|1-1-1--1-1-1--3-3-3--3-3-3---5-5-5--5-5-5-|
|1-1-1--1-1-1--5-5-5--5-5-5---6-6-6--6-6-6-|
|2-2-2--2-2-2--5-5-5--5-5-5---7-7-7--7-7-7-|
|3-3-3--3-3-3--5-5-5--5-5-5---7-7-7--7—7-7-|
|3-3-3--3-3-3--3-3-3--3-3-3---5-5-5--5-5-5-|
|1-1-1--1-1-1--3-3-3--3-3-3----------------|

Chords

 F  Cmaj/G   Dm
|1---3----5--|
|1---5----6--|
|2---5----7--|
|2---5----7--|
|3---3----5--|
|1---3-------|

Solo
Added April 15, 2008)

"He’s the wanderer..."

|---13-12----------------------------|
|---------13-11-10-11-10-------------|
|10----------------------12-10h12p10-|
|------------------------------------|
|------------------------------------|
|------------------------------------|

|---------------------------------------------------------|
|---------------------------------------------------------|
|------10----10-12-10-12b14-12b14r12p10----10-------------|
|10h12----12----------------------------12----10h12p10-10-|
|---------------------------------------------------------|
|---------------------------------------------------------|

Up to here ^ differs from the album Any Time Now but you could probably still play along.

|---------------------------------------|
|------------------------------------15-|
|---------------------------------14----|
|---------------12h15p12----12h15-------|
|---------15h17----------15-------------|
|13/15h17-------------------------------|

|------------------------17-15-15-15-|
|---------15-18-15-18-15-------------|
|14-14h17----------------------------|
|------------------------------------|
|------------------------------------|
|------------------------------------|

The ending (below) could probably be played along with Anytime Now from 6:01 on till the
:)

|---------13-15-13-17-13-18-13-17-13-15-13--13-------13-13-15-13-13-------13-|
|13-13h15--------------------------------------13h15----------------13h15----|
|----------------------------------------------------------------------------|
|----------------------------------------------------------------------------|
|----------------------------------------------------------------------------|
|----------------------------------------------------------------------------|

|---------------------------------------------------------------------|
|10h11p10h11p10h11p10-------------------------------------------------|
|---------------------10h12p10h10p12-------------------------------10-|
|------------------------------------10h12p10h12p10----------10h12----|
|---------------------------------------------------10h11h12----------|
|---------------------------------------------------------------------|

|---------------------------------------------|
|10h11p10h11p10h11p10-----------------10-10---|
|---------------------10h12p10h10p12--10-10---|
|---------------------------------------------|
|---------------------------------------------|
|---------------------------------------------|

Hope that helps :D

Lyrics
Down the road there was a man walking, walking
Knapsack round his back radio talking, talking
And his blue suede shoes are covered in mud, but it no matter cause the boys on the run

He's the wanderer looking for his long lost home
He's only got one place to go
He's wandering and wondering when to go home
He's not alone, not alone, not alone

Feet been walking for a thousand years, trying to drive away those fears, but no
Well then he picked up and then he went down south
Dad said nothing and mom shut her mouth

Well, he never thought too much, just thought he could heal with his touch
For those who need help and more love
And when love came around I heard the sound
Wanderers wandering all round the town
But no, they go

He's the wanderer looking for his long lost home
He's only got one place to go
He's wandering and wondering when to go home
He's not alone, not alone, not alone
Hey, he's the wanderer looking for his long lost home
He's only got one fine place to go
He's wandering wondering when to go home
He's not alone, not alone, not alone

We wan wan wandered along, grabbed our friends and we move along
We won won won the war, grabbed our guns and we ran for the door