O.A.R. - What Are The Odds Text Guitar Tab

Learn the song with the online tablature player
oar
what are the odds?

Intro

e---8----7---8----|
b---8----8---10---|
g---9----9---10---|
d---10---9---10---|
a---10---7---8----|
E---8----7---8----|

Verse

e---8----7---8---- x2 ---7---8----10---8----8----|
b---8----8---10---    ---8---10---12---10---8----|
g---9----9---10---    ---9---10---12---10---9----|
d---10---9---10---    ---9---10---12---10---10---|
a---10---7---8----    ---7---8----10---8----10---|
E---8----7---8----    ---7---8----10---8----8----|

Chorus

e---10---8----8----|
b---12---10---8----|
g---12---10---9----|
d---12---10---10---|
a---10---8----10---|
E---10---8----8----|

Bridge

why can't all this..............

e---5---4---3---  -------|
b---5---5---3---  -------|
g---6---6---4---  ---1---|
d---7---6---5---  ---2---|
a---7---4---5---  ---2---|
E---5---4---3---  -------|