O-Town - We Fit Together Text Guitar Tab

Learn the song with the online tablature player
Main Riff (C & F)
e--0-0-000--0-0-00000--0-0-000--0-0-00000--|
B--1-1-111--1-1-11111--1-1-111--1-1-11111--|
G--0-0-000--2-2-22222--0-0-000--2-2-22222--|
D--2-2-222--3-3-33333--2-2-222--3-3-33333--|
A--3-3-333-------------3-3-333-------------|
E------------------------------------------|

Verse/Chorus Chords
C F C F

Pre-Chorus Chords
Amaj C Amaj F

Chords

  C      F     Amaj
--0--  --0--  --0--|
--1--  --1--  --0--|
--0--  --2--  --2--|
--2--  --3--  --2--|
--3--  -----  --0--|
-----  -----  -----|