O.A.R. - Hold On True Text Guitar Tab

Learn the song with the online tablature player
Hold on True
OAR

Intro

e:---16p12---14-12-----12------12p9-----------------|
B:-12------12-----12p14--12---9----9-12-9-9p10p9----|
G:-----------------------------------------------11-|
D:--------------------------------------------------|
A:--------------------------------------------------|
E:--------------------------------------------------|

Repeat as necessary

Chorus

e:---0--7--5-|
B:---0--7--5-|
G:---1--8--6-|
D:---2--9--7-|
A:---2--9--7-|
E:---0--7--5-|

     E  B  A

Bridge
e:---0--2--5--7-|
B:---1--2--5--7-|
G:---2--3--6--8-|
D:---2--4--7--9-|
A:---0--4--7--9-|
E:---0--2--5--7-|

Am  F#  A  B