O.A.R. - Letter In My Hand Text Guitar Tab

Learn the song with the online tablature player
OAR
Letter in my Hand

h = hammer on
p = pull off

Intro

e-----3-----2(h3p2)-----------|
b-----------3-----------1-----|
g-----------2-----------0-----|
d-----x-----------------2-----|
a-----2-----------------3-----|
E-----3-----------------------|

Verse/Chorus

e-----10-----10-----8------|
b-----12-----10-----8------|
g-----12-----11-----9------|
d-----12-----12-----10-----|
a-----10-----12-----10-----|
E-----10-----10-----8------|

or

oarsa.org