Oasis - Dig Out Your Soul Text Guitar Tab

Learn the song with the online tablature player
Title: Bag It Up
Artist: Oasis
Album: Dig Out Your Soul

Tempo: 90 bpm

Chords:
C5/D
D5
F5
G5
E5
Eb5
Bb
D/A
D5
D/F
A5
C5
Bb5
Ab5
Gb5
F5
G5
F5
E5
Eb5
F#5

Note: Tune 6th string to D

Intro
[Main Riff]
     C5/D  D5    C5/D  D5     F5 G5        F5 G5
E|--|------------------------|------------------------|
B|--|------------------------|------------------------|
G|--|5h7---7--5x-5h7---7--7x-|------------------------|
D|xx|0-0---0--0x-0-0---0--0x-|3s5---5--3x-3s5---5--5x-|
A|xx|0-0---0--0x-0-0---0--0x-|3s5---5--3x-3s5---5--5x-|
D|xx|0-0---0--0--0-0---0--0--|3s5---5--3x-3s5---5--5x-|

Verse 1
[Main Riff]
Gold and silver and sunshine is rising up
Pour yourself another cup of Lady Grey
Take my hand in the meantime, when you've had enough
       F5                       E5      Eb5
You'll find me on the end of a runway, babe

Verse 2
Tell the world that you love them in a melody
Send my old piano and a telegram
Gotta get me a doctor with a remedy
I'm gonna talk a walk with the Monkey Man!

D5

Bridge
Bb      D/A          D5   D/F
Someone tell me I'm dreaming
    Bb                D/A             D5
The freaks are rising up through the floor

Riff
E|---|----------------|
B|-78|78787~----------|
G|-7-|7-7-7~----------|
D|---|----------------|
A|---|----------------|
D|---|----------------|

Bb   D/A       D5     D/F
Everything I believe in
   G5                      A5
Is telling me that I want more, more, more

Chorus
A5       C5           D5           [C5/D D5]
Lay your love on the fire when you come on in
  A5               C5                  D5  [C5/D D5]
I got my hee-bee-jee-bees in a hidden bag
A5      C5         D5             [C5/D D5]
Tell me what you desire and we'll bag it up,
Bb5 A5 Ab5 G5 Gb5 F5 E5
high

Instrumental Riff
E|5---5---5---5---| [Reapeat]

C5/D D5  C5/D D5  |F5* G5*  F5* G5*  x3
F5                 E5      Eb5
D5

Bridge
Someone tell me I'm dreaming
The freaks are rising up through the floor
Everything I believe in
Is telling me that I want more, more, more

Chorus
Lay your love on the fire when you come on in
I got my hee-bee-jee-bees in a hidden bag
Tell me what you desire and we'll bag it up, high

Shine a light on your fire when you come on in
I got my hee-bee-jee-bees in a hidden bag
Tell me what you desire and we'll bag it up, high

Outro
                   |------X4------|
E|----------------|----------------|
B|----------------|----------------|
G|--------00000000|7--77-----------|
D|--------00000000|0--00---------xx|
A|--------00000000|0--00---------xx|
D|----------------|0--00---------xx|

E|----------------|
B|----------------|
G|7-7-7-7-7-7-7-7-|
D|0-0-0-0-0-0-0-0-|
A|0-0-0-0-0-0-0-0-|
D|0-0-0-0-0-0-0-0-|

          F5       F#5
E|----------------|----------------|
B|----------------|----------------|
G|7-7-7-7-7-7-7-7-|7-7-7-7-7-7-7-7-|
D|0-0-0-0-0-0-0-0-|0-0-0-0-0-0-0-0-|
A|0-0-0-0-0-0-0-0-|0-0-0-0-0-0-0-0-|
D|0-0-0-0-0-0-0-0-|0-0-0-0-0-0-0-0-|
          Eb5*     D5*                 X4 [Ending on D5* chord]
E|----------------|----------------|
B|----------------|----------------|
G|7-7-7-7-7-7-7-7-|7-7-7-7-7-7-7-7-|
D|0-0-0-0-0-0-0-0-|0-0-0-0-0-0-0-0-|
A|0-0-0-0-0-0-0-0-|0-0-0-0-0-0-0-0-|
D|0-0-0-0-0-0-0-0-|0-0-0-0-0-0-0-0-|

Title: The Turning
Artist: Oasis
Album: Dig Out Your Soul

Tempo: 120 bpm

Note: Tune 6th string to D

Chords:
Dm7
G/D
Gm/D
D
Ab
G5
F5
Em
G5
D

Intro
Dm7          G/D
Gm/D         D  |           X2

Verse 1
Eyes over the city
rise up from your soul
They hang over the streets at night
Brought on by the cold

We live with the numbers
Mining a dream for the same old song
What hope for the turning
If everything you know is wrong

Chorus
         Ab G5         D
So come on, shake your rag doll, baby
Before you change your mind
Then come on, when the rapture takes me
F5                          Em
Be the fallen angel by my side

Dm7          G/D
Gm/D         D

Verse 2
If you carry the lantern
I'll carry you home
You search for the disappeared
I'll bury the cold

Yours is a messiah
Mine is a dream and it won't be long
No hope for the journey
If no-one ever sees the dawn

Chorus
         Ab G5         D
So come on, shake your rag doll, baby
Before you change your mind
Then come on, when the rapture takes me
Will you be by my side?
Then come on, when the rapture takes me
F5                          G5
Be the fallen angel by my side

Solo
                           Bb5         C5       D
E|------------------------|------------------------|
B|------------------------|------------------------|
G|------------------------|------------------------|
D|------------------10-12-|12----------------------|
A|--------------/12-------|---------------------10-|
D|------------------------|------------------------|
                           Bb5         C5       D
E|------------------------|------------------------|
B|------------------------|---------------------10-|
G|------------10----10-12-|---------------------12b|
D|------10-12----12-------|12----------------------|
A|---12-------------------|------------------------|
D|------------------------|------------------------|
                           Bb5         C5       D
E|------------------------|------------------------|
B|------------------------|------------------------|
G|-----10h12p10--10--10-12|---------------------12-|
D|--------------12--12----|12----------------------|
A|------------------------|------------------------|
D|------------------------|------------------------|
                           Bb5         C5       D
E|------------13----13-15-|---------------------15b|
B|------13-15----15-------|15----------------------|
G|---14-------------------|------------------------|
D|------------------------|------------------------|
A|------------------------|------------------------|
D|------------------------|------------------------|

E|---p13------------------||
B|------15-15\------------||
G|------------------------||
D|------------------------||
A|------------------------||
D|------------------------||

Chorus
So come on, shake your rag doll, baby
Before you change your mind
Then come on, when the rapture takes me
Will you be by my side?

Hey come on, shake your rag doll, baby
Before you change your mind
Then come on, when the rapture takes me
F5                          Em
Be the fallen angel by my side

Outro
Dm7          G/D
Gm/D         D  |           [Repeat and fade]

Outro 2
[Fade in - 80 bpm]
  D5/7                     G/D
E|5-----------5-----------|3-----------3-----------|
B|--------3-----------3---|--------3-----------3---|
G|-----5-----------5------|-----4-----------4------|
D|----0------0----0------0|----0------0----0------0|
A|------------------------|------------------------|
D|------------------------|------------------------|
  Gm/D                     D
E|3-----------3h5---------|2-----------2-----------|
B|--------3-----------3---|--------3------------3--|
G|-----3-----------3------|-----2-----------2------|
D|----0------0----0------0|----0------0----0------0|
A|------------------------|------------------------|
D|------------------------|------------------------|
  Dm7                      G/D
E|1-----------1-----------|3-----------3-----------|
B|--------1-----------1---|--------3------------3--|
G|-----2-----------2---2s4|-----4-----------4------|
D|----0------0----0-------|----0------0----0------0|
A|------------------------|------------------------|
D|------------------------|------------------------|
  D
E|2-----------------------||
B|3-----------------------||
G|2-----------------------||
D|0-----------------------||
A|------------------------||
D|------------------------||

Title: Waiting For The Rapture
Artist: Oasis
Album: Dig Out Your Soul

Tempo: 85 bpm

Note: Tune 6th string to D

Chords:
A5
G5
D5
F5
C5
E5
D5

Intro
  A5                   G5
E|------------------------|
B|------------------------|
G|------------------------|
D|7-----7-----7-----7--5--|
A|7-----7-----7-----7--5--|
D|7-----7-----7-----7--5--|  X2

Verse 1
A5                        G5 D5
I still don't know what I was waiting for
F5                           G5  A5    (G5 A5)
A big love to fall down from the sky
She took my hand and picked me up off the floor
She put an apple in my eye

Chorus
           C5   G5 A5
I said I'm tired
G5   F5                     G5 A5    (G5 A5)
Come get me off the merry-go-round
    C5   G5 A5
I'm wired
G5   F5                      G5 A5     G5
Come feed me and then bring me down

Verse 2
She come up to me
I can't remember what she said
Cause I was in a trance and I forgot it all
Riff 1
E|------------------------|
B|7b9---------------------|
G|7b9-(9)75---------------|
D|---------7--------------|
A|------------------------|
D|------------------------|
I bet you don't know about all that
Revolution in her head
She make a lover seem so magical

Chorus
She said I'm tired
Come get me off the merry-go-round
I'm wired
     F5
Well heaven must of sent you
   E5
To save me from the rapture... yeah

Instrumental
                           |-----with Riff 1------|
  C5             D5    A5                 G5    F5
E|------------------------|--------------------------|
B|------------------------|--------------------------|
G|------------------------|--------------------------|
D|10----10----10-12-12-7--|7-----7-----7--5--5--3----|
A|10----10----10-12-12-7--|7-----7-----7--5--5--3----|
D|10----10----10-12-12-7--|7-----7-----7--5--5--3----|
  |-----with Riff 1----------------------------------|
                           C5
E|------------------------|------------------------|
B|------------------------|------------------------|
G|------------------------|------------------------|
D|3-----3-----3-----3--3--|10----10----10----10----|
A|3-----3-----3-----3--3--|10----10----10----10----|
D|3-----3-----3-----3--3--|10----10----10----10----|    X2

Chorus 2
[Use Instrumental chords]
I'm tired
Come get me off the merry-go-round
I'm wired
Come feed me and then bring me down

Outro
C5  F5   C5  F5
C5  F5   C5  F5   C5

Outro 2
  C5           F5          C5           F5
E|------------------------|------------------------|
B|------------------------|------------------------|
G|------------------------|------------------------|
D|---------------------3--|---------------------3--|
A|/10-10-12p11\3--3--3----|/10-10-12p11\3--3--3----|
D|/10-10-10---\3--3--3----|/10-10-10---\3--3--3----|
  C5           F5          C5           F5
E|------------------------|------------------------|
B|------------------------|------------------------|
G|------------------------|------------------------|
D|---------------------3--|---------------------3--|
A|/10-10-12p11\3--3--3----|/10-10-12p11\3--3--3----|
D|/10-10-10---\3--3--3----|/10-10-10---\3--3--3----|
  C5
E|------------------------||
B|------------------------||
G|------------------------||
D|------------------------||
A|/10---------------------||
D|/10---------------------||

Title: The Shock Of The Lightning
Artist: Oasis
Album: Dig Out Your Soul

Tempo: 137 bpm

Chords:
   Gtr. 1      Gtr. 2
A
Am
F
G
F#m
D

Intro
A       |Am    X4

A        Am
A        Am
A        Am
F        G

Verse 1
A                 Am
I'm all over my heart's desire,
A                   Am
I feel cold but I'm back in the fire,
A                       Am
Out of control but I'm tied up tight,
     F              G
Come in, come out tonight..

Comin' up in the early morning,
I feel love in the shock of the lightning,
I fall into the blinding light,
Come in, come out, come in, come out tonight..

  A
  [Gtr. 2]
E|----------------|----------------|
B|----------------|----------------|
G|----------------|----------------|
D|7-7-5-7-7-7-5-7-|7-7-5-7-7-7-5-7-|
A|7-7-5-7-7-7-5-7-|7-7-5-7-7-7-5-7-|
E|5-5-5-5-5-5-5-5-|5-5-5-5-5-5-5-5-|    X2

Chorus
F#m        F
Love is a time machine,
F#m         D
Up on the silver screen,
A         D
It's all in my mind,
F          D
Love is a litany,
F          D
A magical mystery,
A        D           A         D
And all in good time, and all in good time,
A        D        F  G  A
And all in good time..

Verse 2
I got my feet on the street but I can't stop flyin',
My head is in the clouds but at least I'm tryin',
I'm out of control but I'm tied up tight,
Come in, come out tonight..

There's a hole in the ground into which I'm fallin',
So God's speed to the sound of the poundin',
I'm all into the blinding light,
Come in, come out, come in, come out tonight..

Chorus
Love is a time machine,
Up on the silver screen,
It's all in my mind,
Love is a litany,
A magical mystery,
And all in good time, and all in good time,
And all in good time..

Drum Solo Break
  A                Am
E|----------------|----------------|
B|----------------|----------------|
G|----------------|----------------|
D|7-7-5-7-7-7-5-7-|7-7-5-7-7-7-5-7-|
A|7-7-5-7-7-7-5-7-|7-7-5-7-7-7-5-7-|
E|5-5-5-5-5-5-5-5-|5-5-5-5-5-5-5-5-|  X12

Guitar Solo
  F#m              D
E|----------------|----------------|
B|----------------|----------------|
G|--------2-4-2-4b|--4~--2---------|
D|----------------|----------------|
A|----------------|----------------|
E|----------------|----------------|  X2

Chorus 2
A         D
It's all in my mind,
F          D
Love is a time machine,
F          D
Up on the silver screen,
A        D
And all in good time, and all in good time,
And all in good time..

Outro
A       |D    X8
A

Title: I'm Outta Time
Artist: Oasis
Album: Dig Out Your Soul

Tempo: 77 bpm

Chords:
Em
Cmaj7
Em6
E7sus4
C
G
Bm/F#
Em7(022030)

Intro
  Em               Cmaj7
E|0-------0-------|0-------0-------|
B|-----0-------0--|-----0-------0--|
G|---0--0----0--0-|---0--0----0--0-|
D|--2-------2----=|--2-------2-----|
A|2-------2-------|3-------3-------|
E|----------------|----------------|
  Em6              Cmaj7
E|0-------0-------|0-------0-------|
B|-----0-------0--|-----0-------0--|
G|---0--0----0--0-|---0--0----0--0-|
D|--2-------2-----|--2-------2-----|
A|4-------4-------|3-------3-------|
E|----------------|----------------|    X2

Verse 1
Em
Here's a song
                      E7sus4
It reminds me of when we were young
                         Am
Looking back at all the things we've done
                   C
You gotta keep on keepin' on

Out to sea
Is the only place I am asleep
Can get myself some piece of mind
You know it's getting hard to fly

Chorus
G
If I'm to fall
Bm/F#
Would you be there to applaud
   Em                            Em7
Or would you hide behind the law
                   Am
Because If I am to go
                 C
In my heart you grow
                       G
And that's where you belong

  [Bass Riff]
G|----------------|----------------|
D|----------------|----------------|
A|------------5---|7---------------|
E|----3---5s7-----|----------------|

Guitar Solo
E|------------------------|------------------------|
B|15b(17)-----15----------|------------------------|
G|------------------------|14-16----14----12-------|
D|------------------------|------------------14----|
A|------------------------|------------------------|
E|------------------------|------------------------|    X4

Chorus
If I'm to fall
Would you be there to applaud
Or would you hide behind the law
Because If I am to go
In my heart you grow
And that's where you belong

If I'm to fall
Would you be there to applaud
Or would you hide behind the law
Because If I am to go
In my heart you grow
And that's where you belong

Outro
    G
Yes I'm out of time
                Bm/F#
I'm out of time
Em
I'm out of time
Am
I'm out of time
C
I'm out of time

G              Bm/F#
Em
Am
C       |               Repeat & fade

Title: (Get Off Your) High Horse Lady
Artist: Oasis
Album: Dig Out Your Soul

Tempo: 78 bpm

Note: Tune 6th string to D

Chords:
Dm9
C
C/B
G6/B
G6/F
Dm9/G

Intro
Dm9     |          X2

Verse 1
              Dm9
Get off your high horse lady, I dont need a ride tonight.

E|------------|------------------------|
B|------------|------------------------|
G|------------|------------------------|
D|---------3-0|------------------------|
A|------3-0---|------------------------|
D|------------|------------------------|
Get off your high horse lady, I dont need a ride tonight.
E|------------|------------------------|
B|------------|------------------------|
G|------------|------------------------|
D|------3-0--0|------------------------|
A|----------3-|------------------------|
D|------------|------------------------|             
 C    C/B C
Lay down.

Dm9     |


Verse 2

I hear your soul song singing from a fire in the sky.
I hear your
song singing from a fire in the sky.

C    G6/B G6/F  Dm9
Rain down.
 C    G6/B G6/F
Rain down.

Dm9

Instrumental
Dm9
        |
Dm9/G
Dm9
C        G6/B G6/F
Dm9
C        G6/B G6/F
Dm9

Verse 3
              Dm9
Get off your high horse lady, I dont need a ride tonight.

              Dm9/G                          Dm9
Get off your high horse lady, I dont need a ride tonight.
 C    G6/B G6/F  Dm9
Lay down.
 C    G6/B G6/F
Lay down.

Outro
[Piano]
  Dm9
E|10----------8---|----------------|
B|----------------|10--------------|
G|----------------|----------------|
D|----------------|----------------|
A|----------------|----------------|
D|----------------|----------------|    X2

E|10----------8---|------------8---|--------|
B|----------------|10--------------|10------|
G|----------------|----------------|--------|
D|----------------|----------------|--------|
A|----------------|----------------|--------|
D|----------------|----------------|--------|

Title: Falling Down
Artist: Oasis
Album: Dig Out Your Soul

Tempo: 131 bpm

Chords:
Em
Em7
Cmaj7
Asus2
Dsus2
G6

Intro
Em       Em7
Cmaj7   |Asus2      X2

Verse 1
    Em
The summer sun
   Em7
It blows my mind
      Cmaj7           Asus2
It's falling down on all that I've ever known
Time to kiss the world goodbye
Falling down on all that I've ever known
Cmaj7 Asus2
Is all that I've ever known

Break
Em       Em7
Cmaj7   |Asus2      X2

Verse 2
A dying scream
It makes no sound
Calling out to all that I've ever known
Here am I, lost and found
Calling out to all

Pre-Chorus
Em Em7           Cmaj7 Asus2
We live a dying dream
If you know what I mean
All that I've ever known
Cmaj7 Dsus2
Is all that I've ever known.

Break
  Em
E|----------------|----------------|
B|----------------|----------------|
G|----------------|----------------|
D|----------------|----------------|
A|----------------|----------------|
E|0---0---0-0---0-|0-0-0-3-0-5---0-|

E|----------------|----------------|
B|----------------|----------------|
G|----------------|----------------|
D|----------------|----------------|
A|----------------|----------------|
E|0---0---0-0---0-|--0-0---0-0---0-|

Chorus
G6                    Dsus2           Em
Catch the wind that breaks the butterfly
  [Bend Riff]
E|----------------|----------------|
B|----------------|----------------|
G|----------------|----------------|
D|7b9=------------|----------------|
A|----------------|----------------|
E|----------------|----------------|
   Cmaj7                               Em
I cried the rain that fills the ocean wide
  G6                  Dsus2      Em [with Bend riff]
I tried to talk with God to no avail
            Cmaj7            Dsus2
Calling my name from out of nowhere
           Cmaj7               Dsus2        G6
I said "If you won't save me, please don't waste my time"

Break
Em       Em7
Cmaj7   |Asus2      X4
Cmaj7    Dsus2

Break 2
  Em
E|----------------|----------------|
B|----------------|----------------|
G|----------------|----------------|
D|----------------|----------------|
A|----------------|----------------|
E|0---0---0-0---0-|0-0-0-3-0-5---0-|  X8

Chorus
Catch the wind that breaks the butterfly
I cried the rain that fills the ocean wide
I tried to talk with God to no avail
Calling my name from out of nowhere
I said "If you won't save me, please don't waste my time"

Break
Em       Em7
Cmaj7   |Asus2      X2

Verse 3
The summer sun
It blows my mind
It's falling down on all that I've ever known
Time to kiss the world goodbye
Falling down on all that I've ever known
Cmaj7 Dsus2
Is all that I've ever known

Title: To Be Where There's Life
Artist: Oasis
Album: Dig Out Your Soul

Tempo: 101 bpm

Chords:
D5
A5

Intro
[Bass Riff]
  D5
G|------------------------|------------------------|
D|---------12-10-------10-|---------12-10----------|
A|--------------10-/12----|--------------10-/12-10-|
E|10-10-10----------------|10-10-10----------------|  X2

Verse 1
D5
Day's turning to night
Pray for the light
A5
Let me come through
                 D5
Let me take you away over the line

Everyone falling
Everyone falling
Dreamers come crawling
Neighbours jump walling
Let me come through
Let me take you away over the line

Verse 2
And we're away to be where there's life
Shake the will to comply
Fears don't try me
Tears don't cry me
And we're away to be where there's life

When we come call out
Everything's sold out
TV just closed down
There's nothing on the news now
Fears don't try me
Tears don't cry me
We're away to be where there's life
Be where there's life

Verse 3
Dig out your soul, cos here we go
We gotta move, it's what we do
Let me come through
Let me take you away to be where there's life
To be where there's life

Take you over the light
Under the signs
In through locked doors to secret floors
Where we've lost 'em before

Title: Ain't Got Nothin'
Artist: Oasis
Album: Dig Out Your Soul

Tempo: 112 bpm

Chords:
A5
B5
F#5
E
E7
E5
D5
G5
F5

Intro
  A5          B5           F#5
E|------------------------|------------------------|
B|------------------------|------------------------|
G|2---2-------4---4-------|------------------------|
D|2---2---0---4---4---0---|4---4---4---4---4---4---|
A|0---0---0---2---2---0---|4---4---4---4---4---4---|
E|--------0-----------0---|2---2---2---2---0---2---|  X2

Verse 1
A5        B5             F#5
They got nothin' on me anymore
They got nothin' on you
I don't care what they say anymore
All I want is the truth

Chorus
E            E7
I don't feel, to unveil
Here's a song, sing along

Break
A5    B5    |F#5          X2

Verse 2
They got nothin' from me anymore
I got nothin' from you
I don't care what they say anymore
All I want is the truth

Chorus
E5            D5
I don't feel, to unveil
Here's a song, sing along
G5              F5
Watch my style, pick a place
Wipe the smile, from your face
E5           D5
I don't feel, to unveil
Here's a song, sing along
G5             F5
Watch my style, pick a place
Wipe the smile, from your face

Solo
A5    B5    |F#5          X4

[Gtr. 1] [Gtr. 2 - improvise]
  E5                       D5
E|------------------------|------------------------|
B|------------------------|------------------------|
G|------------2b4=--------|--------------------2h4-|
D|------------------------|------------------------|
A|------------------------|------------------------|
E|------------------------|------------------------|
  E5                       D5
E|------------------------|------------------------|
B|------------------------|------------------------|
G|--------------------2-0-|--------------------0-2-|
D|2~------------------2-0-|--------------------0-2-|
A|------------------------|2~----------------------|
E|------------------------|------------------------|
  G5                       F5
E|------------------------|------------------------|
B|------------------------|---99~------------------|
G|4b5-------------4-------|7-----------------------|
D|------------------------|------------------------|
A|------------------------|------------------------|
E|------------------------|------------------------|
  G5                       F5
E|------------------------|------------------------|
B|-------/8-----------8---|-----8----------8---10--|
G|------------9-----------|9~----------9-----------|
D|------------------------|------------------------|
A|------------------------|------------------------|
E|------------------------|------------------------|
  E5                       D5
E|------------10----------|------------10----------|
B|10b12-------------------|10b12-------------------|
G|------------------------|------------------------|
D|------------------------|------------------------|
A|------------------------|------------------------|
E|------------------------|------------------------|
  E5                       D5
E|10------10--10------10--|10------10--10---~\-----|
B|10b12---12--10b12---12--|10b12---12--10b12~\-----|
G|------------------------|------------------------|
D|------------------------|------------------------|
A|------------------------|------------------------|
E|------------------------|------------------------|
  G5                       F5
E|------------------------|------------------------|
B|------------------------|------------------------|
G|14b15-------14b15-------|12--------------10--12--|
D|------------x-----------|------------------------|
A|------------------------|------------------------|
E|------------------------|------------------------|
  G5                       F5
E|------------------------|------------------------||
B|------------------------|------------------------||
G|14b15-------14b15-------|------------------------||
D|------------------------|12\---------------------||
A|------------------------|------------------------||
E|------------------------|------------------------||

Verse 3
They got nothin' on me anymore
They got nothin' on you
I don't care what they say anymore
All I want is the truth

Title: The Nature Of Reality
Artist: Oasis
Album: Dig Out Your Soul

Tempo: 106 bpm

Note: Tune 6th string to D

Chords:
Dsus2
G5
Bb5
A5
C5
F5
E5
Eb5

Intro
E|0-0-0-0-0-0-0-0-0-0-0-0-|------------------------|
B|3-3-3-3-3-3-3-3-3-3-3-0-|2-2-2-2-2-2-1-----------|
G|------------------------|2-2-2-2-2-2-1-----0-----|
D|------------------------|0-0-0-0-0-0-0-----0--3--|
A|------------------------|---------------------3--|
D|------------------------|------------------------|

E|------------------------|------------------------|
B|------------------3~----|-----------------/3---3-|
G|0-----------------------|-----------------/2---2-|
D|0-----3--2--0-----------|------------------------|
A|------3--2--0-----------|----0-3---2-0-----------|
D|------------0-----------|----0-3---2-0-----------|

E|------------------------|------------------------|
B|3-----------------3~----|-----------------/3---3-|
G|2-----------------------|-----------------/2---2-|
D|------------------------|------------------------|
A|----0-3---2-0-----------|----0-3---2-0-----------|
D|----0-3---2-0-----------|----0-3---2-0-----------|

E|------------------------|
B|3-----------------3~--3-|
G|2-----------------2---2-|
D|------------------------|
A|----0-3---2-0-----------|
D|----0-3---2-0-----------|

Verse 1
Dsus2
The nature of reality
E|------|------------------------|------------------------|
B|---3~-|------------------3~----|-----------------/3---3-|
G|------|------------------------|-----------------/2---2-|
D|------|------------------------|------------------------|
A|------|----0-3---2-0-----------|----0-3---2-0-----------|
D|------|----0-3---2-0-----------|----0-3---2-0-----------|
   G5               Bb5
Is pure subjective fantasy
E|------------------------|------------------------|
B|------------------3~----|-----------------/3---3-|
G|------------------------|-----------------/2---2-|
D|------------------------|------------------------|
A|----0-3---2-0-----------|----0-3---2-0-----------|
D|----0-3---2-0-----------|----0-3---2-0-----------|
A5                  C5
Space and time and here and now
     G5           F5  E5  Eb5
Are only in your mind

Intro

Verse 2
Machine of god and devil too
With no weapons just the truth
Belief does not existence make
It's only in your mind

Intro

Guitar Solo
  Dsus2
E|------------------------|------------------------|
B|------------6-8-6-------|------------6-8-6-------|
G|--------5-7-------7-5-7-|--------5-7-------7---7-|
D|----5-7-----------------|----5-7-----------------|
A|5-8---------------------|5-8---------------------|
D|------------------------|------------------------|

E|------------------------|------------------------|
B|------------6-8-6-------|6-8-6-------6-8-6-------|
G|--------5-7-------7-5-7-|------7-5-7-------7-5-7-|
D|----5-7-----------------|------------------------|
A|5-8---------------------|------------------------|
D|------------------------|------------------------|
  G5                       Bb5
E|------------------------|------------------------|
B|8----8---8--6----5---5--|6----6---6--5-----------|
G|------------------------|-----------------7------|
D|------------------------|------------------------|
A|------------------------|------------------------|
D|------------------------|------------------------|
  Dsus2
E|------------------------|------------------------|
B|----------------6-8-6-8-|------------------6~-8--|
G|----------5-5-7---------|--------------5-7-------|
D|----5-5-7---------------|----------7-7-----------|
A|5-8---------------------|------------------------|
D|------------------------|------------------------|

     A5         C5
The nature of reality
    G5           F5    E5    Eb5
Is only in your mind

Title: Soldier On
Artist: Oasis
Album: Dig Out Your Soul

Tempo: 76 bpm

Chords:
E5
Em
B
Asus2
Bsus4/F#

Intro
[Bass Riff]
  E5
G|----------------------------|----------------------------|
D|----------------------------|----------------------------|
A|9--9--9---7-9-7-9---9-7---7-|9--9--9---7-9-7-9---9-7---7-|
E|------------------------9---|------------------------9---|    X4

Verse 1
Em
Hold the line
B
Friend of mine
Asus2
Sing a song
Em
Soldier on

Shine a light
For me tonight
Don't be long
Soldier on

Bsus4/F# Em
La la la x 4

Break
Intro X2

Verse 2
Who's to say
That you were right
And I was wrong
Soldier on

Come the day
Come the night
I'll be gone
Soldier on

La la la x 4

Break
Intro X2

Outro
Em
Soldier on x 12

[Harmonica Part]
E|------------12----------|---------12-------------|
B|------------------------|------------14----------|
G|11----------------------|------------------------|
D|------------------------|------------------------|
A|------------------------|------------------------|
E|------------------------|------------------------|

E|------------------------|------------------------||
B|14----------------12----|------------------------||
G|------------------------|11----------------------||
D|------------------------|------------------------||
A|------------------------|------------------------||
E|------------------------|------------------------||